» » »

Amanda Jenssen, Our Last Goodbye Tabs (ver.1)

Artists:  A B C D E F G H I J K L M N O P Q R S T U V W X Y Z # 

Our Last Goodbye Tabs (ver.1)

Amanda Jenssen Tabs
 Rating:
4/5 (4 votes)
Our Last Goodbye lessons Tabs too difficult? Try these video lessons and learn fast
1
                Chords
            C      Em    Dm    G     F     E     Am
C           E|--0--|--0--|--1--|--3--|--1--|--0--|--0--|
Em          B|--1--|--0--|--3--|--0--|--1--|--0--|--1--|
Dm          G|--0--|--0--|--2--|--0--|--2--|--1--|--2--|
G           D|--2--|--2--|--0--|--0--|--3--|--2--|--2--|
F           A|--3--|--2--|-----|--2--|--3--|--2--|--0--|
E           E|-----|--0--|-----|--3--|--1--|--0--|-----|
Am

Play like this:

Intro
E|-------------------------|
B|--------1-----------1----|
G|------0---0-------0---0--|
D|----2-------2---2-------2|
A|--3-----------3----------|
E|-------------------------|

 Vers
E|-------------------------|---------------------------|--------1-----------1-|
B|--------1-----------1----|--------0-----------0------|------3---3-------3---|
G|------0---0-------0---0--|------0---0-------0---0----|----2-------2---2-----|
D|----2-------2---2-------2|----2-------2---2-------2--|--0-----------0-------|
A|--3-----------3----------|---------------------------|----------------------|
E|-------------------------|--0-----------0-----------0|----------------------|

------|-------------------------|
-3----|--------0-----------0----|
---2--|------0---0-------0---0--|
-----0|----0-------0---0-------0|
------|-------------------------|
------|--3-----------3----------|

Chorus


E|-------------------------|--------------------------|-----------------------|
B|--------1-----------1----|--------3------------3----|--------0-----------0--|
G|------2---2-------2---2--|------4----4-------4---4--|------1---1-------1----|
D|----3-------3---3-------3|----5--------5---5-------5|----2-------2---2------|
A|-------------------------|--------------------------|-----------------------|
E|--1-----------1----------|--3------------3----------|--0-----------0--------|

---|-------------------------|-----------------------------------------------|
---|--------1-----------1----|-------1-----------1-----|--------3------------|
1--|------2---2-------2---2--|------2---2-------2---2--|------4----4-------4-|
--2|----2-------2---2-------2|----3-------3---3-------3|----5--------5---5---|
---|--0-----------0----------|-------------------------|---------------------|
---|-------------------------|--1-----------1----------|--3------------3-----|

-------|-------------------------|
3------|--------1-----------1----|
--4----|------0---0-------0---0--|
----5--|----2-------2---2-------2|
-------|--3-----------3----------|
------3|-------------------------|


Intro   C  C

C           Em                  Dm        G
There is no point, is there? In trying, anymore
C                   Em               Dm
Where are you? When I need you, my love
                 G
Why won’t you care?
F        G                       E              Am  F    G               C
Days and nights they all seem to go by with the sun, this is our last goodbye


C             Em
Oh, Sonny, my sweet Sonny,
  Dm       G
I tried to hard
C                Em
Goodnight Sunny, goodbye Sonny
   Dm             G
We both know it’s right
F        G                       E              Am  F    G               C
Days and nights they all seem to go by with the sun, this is our last goodby
F        G                       E              Am  F    G               C
Days and nights they all seem to go by with the sun, this is our last goodby
            
Submit corrections

comments powered by Disqus
↑ Back to top | Amanda Jenssen Tabs for Our Last Goodbye. Lyrics for acoustic guitar and electric guitar. 1 Tablatures and chords are parodies/interpretations of the original songs. You may use it for private study, scholarship, research or language learning purposes only