» » »

Alter Bridge, Ties That Bind Tabs (ver.3)

Artists:  A B C D E F G H I J K L M N O P Q R S T U V W X Y Z # 

Ties That Bind Tabs (ver.3)

Alter Bridge Tabs
 Rating:
4/5 (4 votes)
Ties That Bind lessons Tabs too difficult? Try these video lessons and learn fast
1
                (Intro)

This is just the intro, later i might tab the whole song.  You can hear the whole song 

Tuning: D Tuning(D,G,C,F,A,d)

d|------------------------------------------------------------------|
A|------------------------------------------------------------------|
F|------------------------------------------------------------------|
C|------------------------------------------------------------------|
G|-----3-0---0------3-2---0------5-0---0------3-0---0---------------|
D|-1-1-----1----0-0-----0----3-3-----3----1-1-----1-----------------|

d|------------------------------------------------------------------|
A|------------------------------------------------------------------|
F|---------------------------------4------4----5---4-0--------------|
C|------------------5-0---0------2------2---------------------------|
G|-----3-0---0--3-3-----3----0-0------0------0---0------------------|
D|-1-1-----1--------------------------------------------------------|


d|------------------------------------------------------------------|
A|------------------------------------------------------------------|
F|------------------------------------------------------------------|
C|------------------------------------------------------------------|
G|-----3-0---0------3-2---0------5-0---0------3-0---0---------------|
D|-1-1-----1----0-0-----0----3-3-----3----1-1-----1-----------------|

d|-------------------------------------------------------------------------------|
A|-------------------------------------------------------------------------------|
F|-------------------------------------------------------------------------------|
C|-------------------------------------------------------------------------------|
G|-----3-0---0------5-0---0------7-0---0------7-0---0----------------------------|
D|-1-1-----1----3-3-----3----5-5-----5----5-5-----5------------------------------|
            
Submit corrections

comments powered by Disqus
↑ Back to top | Alter Bridge Tabs for Ties That Bind. Lyrics for acoustic guitar and electric guitar. 1 Tablatures and chords are parodies/interpretations of the original songs. You may use it for private study, scholarship, research or language learning purposes only