>
 >
Coming Home 1

Coming Home 1 Guitar Tabs

Alter Bridge - Coming Home 1 chords, tabs, tablatures, lyrics

Guitar lessons | Add/correct | Request | Top 50 tabs Artists:  A B C D E F G H I J K L M N O P Q R S T U V W X Y Z 0-9

Coming Home 1 Guitar Tabs – Alter Bridge

CD, Sheet music, Poster

Do you like Coming Home 1? Share with your friends now
Bass TabsBass Tabs v2Bass Tabs v3TabsTabs v2
Coming Home - Alter Bridge



Tuning:Drop B(Drop D down 1-1/2 steps)
Time sig:6/8

Intro
Gtr2 dist w/ flanger
c#-------------------------------------------------|
g#-10----1010--10----1010--10----1010--10----1010--|
e|-7-----7-7---7-----7-7---7-----7-7---7-----7-7---|
B|-0---0-0-0---0---0-0-0---0---0-0-0---0---0-0-0---|
F#-------------------------------------------------|
B|-------------------------------------------------|


Gtr2
c#-6-----6-6---6-----6-6---3-----3-3---3-----3-3---|
g#-3-----3-3---3-----3-3---3-----3-3---3-----3-3---|
e|-5---5-5-5---5---5-5-5---5---5-5-5---5---5-5-5---|
B|-------------------------------------------------|
F#-------------------------------------------------|
B|-------------------------------------------------|


Gtr2
c#-5-----5-5---5-----5-5---5-----5-5---5-----5-5---|
g#-3-----3-3---3-----3-3---3-----3-3---3-----3-3---|
e|-3---3-3-3---3---3-3-3---3---3-3-3---3---3-3-3---|
B|-------------------------------------------------|
F#-------------------------------------------------|
B|-------------------------------------------------|


Gtr2
c#-3-----3-3---3-----3-3---5-----5-5---3-----3-3---|
g#-3-----3-3---3-----3-3---6-----6-6---5-----5-5---|
e|-0---0-0-0---0---0-0-0---3---3-3-3---3---3-3-3---|
B|-------------------------------------------------|
F#-------------------------------------------------|
B|-------------------------------------------------|



Gtr1 dist                 PM..|
c#-------------------------------------------------|
g#-------------------------------------------------|
e|-2-----------2---------------2-------------------|
B|-0-----0-0-0-0-----0-0-0-----0-------------------|
F#-0-----0-0-0-0-----0-0-0-0-0-0-------------------|
B|-0-----0-0-0-0-----0-0-0-0-0-0-------------------|
Gtr2                                               |
c#-------------------------------------------------|
g#-10----1010--10----1010--10----1010--10----1010--|
e|-7-----7-7---7-----7-7---7-----7-7---7-----7-7---|
B|-0---0-0-0---0---0-0-0---0---0-0-0---0---0-0-0---|
F#-------------------------------------------------|
B|-------------------------------------------------|


Gtr1 (dont pick-just let ring)
c#-------------------------------------------------|
g#-------------------------------------------------|
e|-------------------------------------------------|
B|-------------------------------------------------|
F#-3-----------------------------------------------|
B|-5-----------------------------------------------|
Gtr2                                               |
c#-6-----6-6---6-----6-6---3-----3-3---3-----3-3---|
g#-3-----3-3---3-----3-3---3-----3-3---3-----3-3---|
e|-5---5-5-5---5---5-5-5---5---5-5-5---5---5-5-5---|
B|-------------------------------------------------|
F#-------------------------------------------------|
B|-------------------------------------------------|


Gtr1                       
c#-------------------------------------------------|
g#-------------------------------------------------|
e|-10----------10------\---2-2-2-------------------|
B|-8---8-8-8-8-8-------\---0-0-0-------------------|
F#-8---8-8-8-8-8-------\---1-1-1-------------------|
B|-8---8-8-8-8-8-------\---0-0-0-------------------|
Gtr2                                               |
c#-5-----5-5---5-----5-5---5-----5-5---5-----5-5---|
g#-3-----3-3---3-----3-3---3-----3-3---3-----3-3---|
e|-3---3-3-3---3---3-3-3---3---3-3-3---3---3-3-3---|
B|-------------------------------------------------|
F#-------------------------------------------------|
B|-------------------------------------------------|


Gtr1                                    hpPM..|
c#-------------------------------------------------|
g#-------------------------------------------------|
e|-------------------------------------------------|
B|-------------------------------------------------|
F#-------------------------------------353-----1-1-|
B|-----------------------------------------0-0-----|
Gtr2                                               |
c#-3-----3-3---3-----3-3---5-----5-5---3-----3-3---|
g#-3-----3-3---3-----3-3---6-----6-6---5-----5-5-x-|
e|-0---0-0-0---0---0-0-0---3---3-3-3---3---3-3-3-x-|
B|-----------------------------------------------x-|
F#-----------------------------------------------x-|
B|-------------------------------------------------|


________
Preverse|
________|

Gtr1                                    hp
c#-------------------------------------------------|
g#-------------------------------------------------|
e|-------------------------------------------------|
B|-------------------------------------------------|
F#-------------------------------------353-----1-1-|
B|-0-----0---0/12--12121212-0----0---0-----0-0-----|
Gtr2 w/wah                                         |
c#-------------------------------------------------|
g#-------------------------------------------------|
e|-7-----7-7-7-7-7-7-7-7-7-7-----7-7-7-7---x-9-9-10|
B|-x-----x-x-x-x-x-x-x-x-x-x-----x-x-x-x---x-x-x-x-|
F#-5-----5-5-5-5-5-5-5-5-5-5-----5-5-5-5---x-7-7-8-|
B|-------------------------------------------------|


Gtr1
c#-------------------------------------------------|
g#-------------------------------------------------|
e|-------------------------------------------------|
B|-------------------------------------------------|
F#-------------------------------------353-----1-1-|
B|-0-----0---0/10--10101010-0----0---0-----0-0-----|
Gtr2                                               |
c#-------------------------------------------------|
g#-------------------------------------------------|
e|-10----10101010----1012129---9-9-9-9-9---9-9-9-15|
B|-x-----x-x-x-x-----x-x-x-x---x-x-x-x-x---x-x-x-x-|
F#-8-----8-8-8-8-----1012127---7-7-7-7-7---7-7-7-13|
B|-------------------------------------------------|


Gtr1
c#-------------------------------------------------|
g#-------------------------------------------------|
e|-------------------------------------------------|
B|-------------------------------------------------|
F#-------------------------------------3-----------|
B|-0-----0---0/8---8-8-8-8-0-----0---0---5---5---3-|
Gtr2                                               |
c#-------------------------------------------------|
g#-------------------------------------------------|
e|-15--1515151515--1515151515--1515151515141414\-12|
B|-x---x-x-x-x-x---x-x-x-x-x---x-x-x-x-x-x-x-x---x-|
F#-13--1313131313--1313131313--1313131313121212\-10|
B|-------------------------------------------------|

                                          "As  I
Gtr1
c#-------------------------------------------------|
g#-------------------------------------------------|
e|-------------------------------------------------|
B|---------------------------------3-----------1---|
F#-----------------------------3-----------1-------|
B|-0-----0---0/12--1212120-3-----------1-----------|
Gtr2                                               |
c#-------------------------------------------------|
g#-------------------------------------------------|
e|-12--1212121212\-7-7-7-9-9bbbbbbbbbbbbbbbbbb10---|
B|-x---x-x-x-x-x---x-x-x-x-x-----------------------|
F#-10--1010101010\-5-5-5-7-7bbbbbbbbbbbbbbbbbb8----|
B|-------------------------------------------------|



_______
Verse 1|
_______|

  peel away        All the years of pain    I  dis-
  shooting star    they all fall so hard   They all
Gtr1      PM..|                   PM..|   PM..|
c#-------------------------------------------------|
g#.------------------------------------------------|
e|-------------------------------------------------|
B|-------------------------------------------------|
F#.------------------------------------353-----1---|
B|-0-----0-0-0/12--12121212-0----0-0-0-----0-0-----|
                                             
      
 covered what's been all along:        you were so right
 fade  like a played out song"         "now is the time
Gtr1      PM..|                   PM..|   PM..|    
c#-------------------------------------------------|
g#-------------------------------------------------|
e|-------------------------------------------------|
B|-------------------------------------------------|
F#-------------------------------------353-----1---|
B|-0-----0-0-0/10--10101010-0----0-0-0-----0-0-----|


                                            I was so 
                                        before all is           
Gtr1      PM..|                   PM..|            
c#-------------------------------------------------|
g#-------------------------------------------------|
e|-------------------------------------------------|
B|-------------------------------------------------|
F#-------------------------------------3-----------|
B|-0-----0-0-0/8---8-8-8-8-0-----0-0-0---5---5---3-|


  wrong"                                  "Every
  lost"                               ____________
Gtr1      PM..|                        1.         |
c#-----------------------------------|-------------|
g#-----------------------------------|------------.|
e|-----------------------------------|-------------|  __
B|---------------------------------3-|---------1---|<|x2|
F#-----------------------------3-----|-----1------.| |__|
B|-0-----0-0-0/12--1212120-3---------|-1-----------|

                                           I'm coming 
                                    ______________
                                       2.         |
                                    c#-------------|
                                    g#-------------|
                                    e|---------10--|
                                    B|-----8-------|
                                    F#-6-----------|
                                    B|-------------|
_________
Prechorus|
_________|

     home...                               I'm coming
Gtr1
   PM (let ring immediately after palm mute)
c#-------------------------------------------------|
g#-------------------------------------------------|
e|-------------------------------------------------|
B|-------------------------------------------------|
F#-0-----------------------------------------------|
B|-0-----------------------------------------------|

     home...
Gtr1hp PM PM..| hp PM PM..| hp PM PM..|
c#-------------------------------------------------|
g#-------------------------------------------------|
e|-------------------------------------------------|
B|-------------------------------------------------|
F#-------------------------------------------------|
B|-020-0-0-0-0-020-0-0-0-0-020-0-0-0-0-0x----------|
Gtr2                                    vol swell
c#-------------------------------------------------|
g#-------------------------------------------------|
e|-------------------------------------------------|
B|--------------------------------------*7---------|
F#-------------------------------------------------|
B|-------------------------------------------------|


______
Chorus|
______|
   So   I'm   Coming home              "Lost  on  a 
Gtr1&2
c#-------------------3-----1---1-1-1-1-1---1-1-1-1-|
g#-------------------3---3-1---1-1-1-1-1---1-1-1-1-|
e|-9---9-7---7-7---7-5---5-3---3-3-3-3-3---3-3-3-3-|
B|-7---7-0---0-7---7-5---5-3---3-3-3-3-3---3-3-3-3-|
F#-7---7-0---0-5---5-3---3-1---1-1-1-1-1---1-1-1-1-|
B|-7---7-0---0-0-----------------------------------|


    road  I don't belong             I'll  rest  my  
Gtr1&2
c#-------------------------------------------------|
g#-------------------------------------------------|
e|/10----10101010\-5-5---5-5/9---9---9-9\7---7---7-|
B|x------x-x-x-x---x-x---x-x-----x---x-x-----x---x-|
F#/8-----8-8-8-8-\-3-3---3-3/7---7---7-7\5---5---5-|
B|-------------------------------------------------|


   song" "I'm so alone...            far from the 
Gtr1&2
c#-------------------3-3-3-1---1-1-1-1-1---1-1-1-1-|
g#-------------5-5-x-3-3-3-1---1-1-1-1-1---1-1-1-1-|
e|-9---9-7---7-7-7-x-5-5-5-3---3-3-3-3-3---3-3-3-3-|
B|-7---7-0---0-7-7-x-5-5-5-3---3-3-3-3-3---3-3-3-3-|
F#-7---7-0---0-5-5-x-3-3-3-1---1-1-1-1-1---1-1-1-1-|
B|-7---7-0---0-------------------------------------|


   streets I call my own,         I'm   coming
Gtr1&2
c#-------------------------------------------------|
g#-------------------------------------------------|
e|-3/10--10--101012--------9-----9-9-9-9\7-7-7-----|
B|-x-----x---x-x-----10--10x-----x-x-x-x---x-x-----|
F#-1/8---8---8-8/10--x---x-7-----7-7-7-7\5-5-5-----|
B|-------------------10--10------------------------|


  Home"
Gtr1&2
c#-------------------------------------------------|
g#-------------------------------------------------|
e|-------------7-7-7-5-5-5-9-----------------------|
B|-7-----0-----7-7-7-5-5-5-7-----0-----0x----------|
F#-7-----0-----5-5-5-3-3-3-7-----0-----0x----------|
B|-7-----0-----------------7-----0-----0x----------|



______
Verse2|
______|


Rushing back to me
as the city sleeps
so afraid of what I will find
Memories they haunt...

Every broken man
Comes to understand
That he'll never find paradise
and all that he was
was there all the time


__________
2nd Chorus|
__________|

I'm coming
     home...                               I'm coming
Gtr1
   PM (let ring immediately after palm mute)
c#-------------------------------------------------|
g#-------------------------------------------------|
e|-------------------------------------------------|
B|-------------------------------------------------|
F#-0-----------------------------------------------|
B|-0-----------------------------------------------|


     home...
Gtr1hp    PM..| hp    PM..| hp    PM..|
c#-------------------------------------------------|
g#-------------------------------------------------|
e|-------------------------------------------------|
B|-------------------------------------1-----/-----|
F#-----3-----------5-----------6-----0-1-----/-----|
B|-020---0-0-0-020---0-0-0-020---0-0-0-1-----/-----|
Gtr2                                    
c#-------------------------------------------------|
g#-------------------------------------------------|
e|-------------------------------------------------|
B|-------------------------------------1-----/-----|
F#-----------------------------------0-1-----/-----|
B|-----------------------------------0-1-----/-----|



______
Chorus|
______|
   So   I'm   Coming home              "Lost  on  a 
Gtr1&2
c#-------------------3-----1---1-1-1-1-1---1-1-1-1-|
g#-------------------3---3-1---1-1-1-1-1---1-1-1-1-|
e|-9---9-7---7-7---7-5---5-3---3-3-3-3-3---3-3-3-3-|
B|-7---7-0---0-7---7-5---5-3---3-3-3-3-3---3-3-3-3-|
F#-7---7-0---0-5---5-3---3-1---1-1-1-1-1---1-1-1-1-|
B|-7---7-0---0-0-----------------------------------|


    road  I don't belong           I'll  rest  my  
Gtr1&2
c#-------------------------------------------------|
g#-------------------------------------------------|
e|/10----10101010\-5-5---5-5/9---9---9-9\7---7---7-|
B|x------x-x-x-x---x-x---x-x-----x---x-x-----x---x-|
F#/8-----8-8-8-8-\-3-3---3-3/7---7---7-7\5---5---5-|
B|-------------------------------------------------|


   song" "I'm so alone...            far from the 
Gtr1&2
c#-------------------3-3-3-1---1-1-1-1-1---1-1-1-1-|
g#-------------5-5-5-3-3-3-1---1-1-1-1-1---1-1-1-1-|
e|-9-----7-----7-7-7-5-5-5-3---3-3-3-3-3---3-3-3-3-|
B|-7-----0-----7-7-7-5-5-5-3---3-3-3-3-3---3-3-3-3-|
F#-7-----0-----5-5-5-3-3-3-1---1-1-1-1-1---1-1-1-1-|
B|-7-----0-----------------------------------------|


   streets I call my own,           Yeah    
Gtr1&2
c#-------------------------------------------------|
g#-------------------------------------------------|
e|-3/10--10--101012--------9-----9-9-9-9\7-7-7-----|
B|-x-----x---x-x-----10--10x-----x-x-x-x---x-x-----|
F#-1/8---8---8-8/10--x---x-7-----7-7-7-7\5-5-5-----|
B|-------------------10--10------------------------|


   so    im   coming home              Back  to  a 
Gtr1&2
c#-------------------------1---1-1-1-1-1---1-1-1-1-|
g#-------------------3-3-3-1---1-1-1-1-1---1-1-1-1-|
e|-9-----7-----7---7-5-5-5-3---3-3-3-3-3---3-3-3-3-|
B|-7-----0-----7---7-5-5-5-3---3-3-3-3-3---3-3-3-3-|
F#-7-----0-----5---5-3-3-3-1---1-1-1-1-1---1-1-1-1-|
B|-7-----0-----------------------------------------|

    world   left  long ago           and  now  I 
Gtr1&2
c#-------------------------------------------------|
g#-------------------------------------------------|
e|-3/12--12--121214--14--x-9-----9---9-9/10--------|
B|-x-----x---x-x-----x---x-x-----x---x-x---10--7-7-|
F#-1/10--10--101012--12--x-7-----7---7-7/8-x---x-x-|
B|-----------------------------------------10--7-7-|


   know  I'm   coming home         I'll find my way
Gtr1&2
c#-------------------------1---1-1-1-1-1---1-1-1-1-|
g#-------------5-5-5-3---3-1---1-1-1-1-1---1-1-1-1-|
e|-9-----7-----7-7-7-5---5-3---3-3-3-3-3---3-3-3-3-|
B|-7-----0-----7-7-7-5---5-3---3-3-3-3-3---3-3-3-3-|
F#-7-----0-----5-5-5-3---3-1---1-1-1-1-1---1-1-1-1-|
B|-7-----0-----------------------------------------|

   back   I'm letting go                   I'm coming
Gtr1&2
c#-------------------------------------------------|
g#-------------------------------------------------|
e|-3/10--10--10105---5---5-5/9---9---9-9\7-7-7-7-7-|
B|-x-----x---x-x-----x---x-x-----x---x-x---x-x-x-x-|
F#-1/8---8---8-8\3---3---3-3/7---7---7-7\5-5-5-5-5-|
B|-------------------------------------------------|



______
Bridge|
______|

   home"
Gtr1&2 PM  PM.| hp PM  PM.|    PM  PM.| hp PM  PM.|
c#-------------------------------------------------|
g#-------------------------------------------------|
e|-------------------------------------------------|
B|-------------------------------------------------|
F#-------------------------7h8---------------------|
B|-020-0-0-0-0-020-0-0-0-0-----0-0-0-0-020-0-0-0-0-|



Gtr1&2 PM  PM.| hp PM  PM.|           | 3 |
c#-------------------------------------------------|
g#-------------------------------------------------|
e|-------------------------------------------------|
B|-------------------------875-----7---575---5-----|
F#-3h5------------------------87-5---------8---7-8-|
B|-----0-0-0-0-020-0-0-0-0-------------------------|



Gtr1   PM  PM.|    PM  PM.|    PM  PM.|    PM  PM.|
c#-------------------------------------------------|
g#-------------------------------------------------|
e|-------------------------------------------------|
B|-------------------------------------------------|
F#-------------------------7h8---------------------|
B|-020-0-0-0-0-020-0-0-0-0-----0-0-0-0-020-0-0-0-0-|



bit difficult to line up this part right due to the limitations of notepad,
                     but this is all played in unison
Gtr1  PM  PM.|    PM  PM.| |  6  |
c#-------------------------------------------------|
g#-------------------------------------------------|
e|-------------------------------------------------|
B|-------------------------532-----3---232-5-3-2---|
F#-3h5-------------------------532---------------5-|
B|-----0-0-0-0-020-0-0-0-0-------------------------|
Gtr2                       |   6   |
c#---------------------------------------------------|
g#---------------------------------------------------|
e|-------------------------12109----10--9109-12109---|
B|-----------------------------12109---------------12|
F#---------------------------------------------------|
B|---------------------------------------------------|





Gtr1  PM  PM..|   PM  PM..|   PM  PM..|   PM  PM..|
c#-------------------------------------------------|
g#-------------------------------------------------|
e|-------------------------------------------------|
B|-------------------------------------------------|
F#-------------------------7h8---------------------|
B|-020-0-0-0-0-020-0-0-0-0-----0-0-0-0-020-0-0-0-0-|
Gtr2
c#-------------------------------------------------|
g#-------------------------------------------------|
e|-------------------------------------------------|
B|-x/12------\-------------x/7-------\-------------|
F#-x-----------------------x-----------------------|
B|-x/12------\-0---0-0-0-0-x/7-------\-0---0-0-0-0-|



Gtr1   PM  PM.| hp PM  PM.|           | 3 |
c#-------------------------------------------------|
g#-------------------------------------------------|
e|-------------------------------------------------|
B|-------------------------875-----7---575---5-----|
F#-3h5------------------------87-5---------8---7-8-|
B|-----0-0-0-0-020-0-0-0-0-------------------------|
Gtr2                                  | 3 |
c#-------------------------------------------------|
g#-------------------------------------------------|
e|-------------------------------------------------|
B|-x/12------\-------------875-----7---575---5-----|
F#-x--------------------------87-5---------8---7-8-|
B|-x/12------\-0---0-0-----------------------------|



Gtr1  PM  PM..|   PM  PM..|   PM  PM..|   PM  PM..|
c#-------------------------------------------------|
g#-------------------------------------------------|
e|-------------------------------------------------|
B|-------------------------------------------------|
F#-------------------------7h8---------------------|
B|-020-0-0-0-0-020-0-0-0-0-----0-0-0-0-020-0-0-0-0-|
Gtr2
c#-------------------------------------------------|
g#-------------------------------------------------|
e|-------------------------------------------------|
B|-x/12------\-------------x/7-------\-------------|
F#-x-----------------------x-----------------------|
B|-x/12------\-0---0-0-0-0-x/7-------\-0---0-0-0-0-|



Gtr1   PM  PM.| hp PM  PM.|
c#-------------------------------------------------|
g#-------------------------------------------------|
e|-------------------------7---7-5-5-5-5-5-5-7-7-7-|
B|-------------------------7---7-5-5-5-3-3-3-5-5-5-|
F#-3h5---------------------5---5-3-3-3-3-3-3-5-5-5-|
B|-----0-0-0-0-020-0-0-0-0-0---0-2-2-2-3-3-3-5-5-5-|
Gtr2
c#-------------------------------------------------|
g#-------------------------------------------------|
e|-------------------------2-----------5-5-5-7-7-7-|
B|-x/12------\-------------0---0-5-5-5-3-3-3-5-5-5-|
F#-x-----------------------0---0-3-3-3-3-3-3-5-5-5-|
B|-x/12------\-0---0-0-0-0-0---0-2-2-2-3-3-3-5-5-5-|



  "We             come to find             what we
Gtr1&2
c#-------------------------------------------------|
g#-------------------------------------------------|
e|-10----10101010----10101212----12121212--1212----|
B|-8-----8-8-8-8-----8-8-1010----10101010--1010-0-0|
F#-8-----8-8-8-8-----8-8-1010----10101010--1010-0-0|
B|-8-----8-8-8-8-----8-8-1010----10101010--1010-0-0|


take         for             granted
Gtr1
c#---------------------------------------------------|
g#---------------------------------------------------|
e|-5-----5-5-5-5-----5-5-5-2-----------5---7-5-9b10b9|
B|-3-----3-3-3-2-----2-2-2-0-----0-0-0---------------|
F#-3-----3-3-3-3-----3-3-3-0-----0-0-0---------------|
B|-3-----3-3-3-2-----2-2-2-0-----0-0-0---------------|
Gtr2
c#---------------------------------------------------|
g#-------------------------------------5---6-5-8b10b8|
e|-5-----5-5-5-5-----5-5-5-2-------------------------|
B|-3-----3-3-3-2-----2-2-2-0-----0-0-0---------------|
F#-3-----3-3-3-3-----3-3-3-0-----0-0-0---------------|
B|-3-----3-3-3-2-----2-2-2-0-----0-0-0---------------|


  keeeps              us  alive            in the 

The studio version is done with three or more guitars
but I'll see what I can do for tabbing for just two
Gtr1
c#-------------------------------------------------|
g#-------------------------------------------------|
e|-7~~~~~~~~~~~~~------------0-5-0-7-0-5~~~--------|
B|-----------------------0-------------------------|
F#-------------------------3-----------------3-5---|
B|-----------------------------------------5-------|
Gtr2
c#-------------------------------------------------|
g#-6~~~~~~~~~~~~~~~~~~~~---------------------------|
e|-------------------------12----12121212----1212--|
B|-------------------------10----10101010----1010--|
F#-------------------------10----10101010----1010--|
B|-------------------------10----10101010----1010--|


   end"
Gtr1 whammy bomb               PM  PM.|    PM  PM.|
c#-------------------------------------------------|
g#-------------------------------------------------|
e|-5*-\\\\\\\\\\\\\\\\-----------------------------|
B|-------------------------5h7---------2h3---------|
F#-------------------------------------------------|
B|-----------------------------0-0-0-0-----0-0-0-0-|
Gtr2   PM  PM.|    PM  PM.|    PM  PM.|    PM  PM.|
c#-------------------------------------------------|
g#-------------------------------------------------|
e|-------------------------------------------------|
B|-------------------------------------------------|
F#-------------------------7h8---------3h5---------|
B|-020-0-0-0-0-020-0-0-0-0-----0-0-0-0-----0-0-0-0-|


  "So                don't let   time       leave you   
Gtr1&2
c#-------------------------------------------------|
g#-------------------------------------------------|
e|-10----10101010----10101212----12121212--1212----|
B|-8-----8-8-8-8-----8-8-1010----10101010--1010-0-0|
F#-8-----8-8-8-8-----8-8-1010----10101010--1010-0-0|
B|-8-----8-8-8-8-----8-8-1010----10101010--1010-0-0|


   empty                      handed"
Gtr1
c#---------------------------------------------------|
g#---------------------------------------------------|
e|-5-----5-5-5-5-----5-5-5-2-----------5---7-5-9b10b9|
B|-3-----3-3-3-2-----2-2-2-0-----0-0-0---------------|
F#-3-----3-3-3-3-----3-3-3-0-----0-0-0---------------|
B|-3-----3-3-3-2-----2-2-2-0-----0-0-0---------------|
Gtr2
c#---------------------------------------------------|
g#-------------------------------------5---6-5-8b10b8|
e|-5-----5-5-5-5-----5-5-5-2-------------------------|
B|-3-----3-3-3-2-----2-2-2-0-----0-0-0---------------|
F#-3-----3-3-3-3-----3-3-3-0-----0-0-0---------------|
B|-3-----3-3-3-2-----2-2-2-0-----0-0-0---------------|


    "Reach        out    tonight            and make
*Too many tracks goin here for there to be just 2 guitars..
(this note is played by a third)
Gtr1
c#-------------------------------------------------|
g#*6~~~~~~~~~~~~~~~~~~~~~~~~~~~~~~~~~~~~~~~~~~~~~~-|
e|-7~~~~~~~~~~~~~~~~~~~~~~~~~~~~~~~~~~~~~~~~~~~~~~-|
B|-------------------------------------------------|
F#-------------------------------------------------|
B|-------------------------------------------------|
Gtr2
c#-------------------------------------------------|
g#-------------------------------------------------|
e|-10----10101010----10101212----12121212--1212----|
B|-8-----8-8-8-8-----8-8-1010----10101010--1010-0-0|
F#-8-----8-8-8-8-----8-8-1010----10101010--1010-0-0|
B|-8-----8-8-8-8-----8-8-1010----10101010--1010-0-0|

  amends"
Gtr1
c#-------------------------------------------------|
g#*(6)~~~~~~~~~~~~~~~~~~~~~~~~~~~~~~~~~~~~~~~~~~~~-|
e|-(7)~~~~~~~~~~~~~~~~~~~~~~~~~~~~~~~~~~~~~~~~~~~~-|
B|-------------------------------------------------|
F#-------------------------------------------------|
B|-------------------------------------------------|
Gtr2   PM  PM.|    PM  PM.|    PM  PM.|    PM  PM.|
c#-------------------------------------------------|
g#-------------------------------------------------|
e|-------------------------------------------------|
B|-------------------------------------------------|
F#-------------------------7h8---------------------|
B|-020-0-0-0-0-020-0-0-0-0-----0-0-0-0-020-0-0-0-0-|


Gtr1
c#-------------------------------------------------|
g#*(6)~~~~~~~~~~~~~~~~~~~~~~~~~~~~~~~~~~~~~\-------|
e|-(7)~~~~~~~~~~~~~~~~~~~~~~~~~~~~~~~~~~~~~\-------|
B|-------------------------------------------------|
F#-------------------------------------------------|
B|-------------------------------------------------|
Gtr2  PM  PM.|    PM  PM.| |  6  |
c#-------------------------------------------------|
g#-------------------------------------------------|
e|-------------------------------------------------|
B|-------------------------532-----3---232-5-3-2---|
F#-3h5-------------------------532---------------5-|
B|-----0-0-0-0-020-0-0-0-0-------------------------|


Chorus


_____
Outro|
_____|
Gtr1   PM  PM.|    PM  PM.|    PM  PM.|    PM  PM.|
c#-------------------------------------------------|
g#-------------------------------------------------|
e|-------------------------------------------------|
B|-------------------------------------------------|
F#-------------------------7h8---------------------|
B|-020-0-0-0-0-020-0-0-0-0-----0-0-0-0-020-0-0-0-0-|
Gtr2   PM  PM.|    PM  PM.|    PM  PM.|    PM  PM.|
c#-------------------------------------------------|
g#-------------------------------------------------|
e|-------------------------------------------------|
B|-------------------------5h7---------------------|
F#-------------------------------------------------|
B|-020-0-0-0-0-020-0-0-0-0-----0-0-0-0-020-0-0-0-0-|



Gtr1  PM  PM.|    PM  PM.| |  6  |
c#-------------------------------------------------|
g#-------------------------------------------------|
e|-------------------------------------------------|
B|-------------------------532-----3---232-5-3-2---|
F#-3h5-------------------------532---------------5-|
B|-----0-0-0-0-020-0-0-0-0-------------------------|
Gtr2  PM  PM.|    PM  PM.| |   6   |
c#---------------------------------------------------|
g#---------------------------------------------------|
e|---------------------------------------------------|
B|-------------------------12109----10--9109-12109---|
F#-7h8-------------------------12109---------------12|
B|-----0-0-0-0-020-0-0-0-0---------------------------|

Gtr1&2
c#-------------|
g#-------------|
e|-------------|
B|-0-----------|
F#-0-----------|
B|-0-----------|




| /  slide up
| \  slide down
| PM palm mute
| PH pinch harmonic
| h  hammer-on
| p  pull-off
| ~  vibrato
| *  harmonic
| x  Mute note (or rake)
====================================================





Comments


Popular Alter Bridge tabs & chords
All Hope Is Gone Bass Tabs
Come To Life 2 Bass Tabs
One Day Remains Bass Tabs
Burn It Down Chords
Broken Wings Intro 2 Tabs
Ghost Of Days Gone By 1 Tabs
Life Must Go On Tabs
One By One Tabs
Burn It Down Ukulele
Life Must Go On Ukulele


Song lyrics



↑ Back to top | Tablatures and chords are parodies/interpretations of the original songs. You may use it for private study, scholarship, research or language learning purposes only
© 2014 AZChords.com Contact us | Privacy policy | DMCA | Add/correct tabs | Request tabs | Top 50 tabs