» » »

Alter Bridge, Coming Home Bass tabs (ver.1)

Artists:  A B C D E F G H I J K L M N O P Q R S T U V W X Y Z # 

Coming Home Bass tabs (ver.1)

Alter Bridge Tabs
 Rating:
4/5 (4 votes)
Coming Home lessons Tabs too difficult? Try these video lessons and learn fast
1
                Tuning: Standard BEADG

Intro Part 1:
G|-----------------------------------|
D|-----------------------------------|
A|-----------------------------------|
E|-----------------------------------|
B|-0~~~~~~000------8~~~~~~0~~~~~~000-|

G|--------------|
D|--------------|
A|--------------|
E|--------------|
B|-10h12p10-0-8-|

Intro Part 2/Verse: x3
G|-----------------------|----------------------|-----------------------|--------------------|
D|-----------------------|----------------------|-----------------------|--------------------|
A|-----------------------|----------------------|-----------------------|--------------------|
E|-----------------------|----------------------|-----------------------|--------------------|
B|-0-0-0--12-12-12-12-12-|-0-0-0--10h12p10-0-8--|-0-0-0--10-10-10-10-10-|-0-0-0--0h12p10-0-8-|

G|-------------------|-----------------|-----------------------|---------|
D|-------------------|-----------------|-----------------------|---------|
A|-------------------|-----------------|-----------------------|---------|
E|-------------------|-----------------|-----------------------|---------|
B|-0-0-0--8-8-8-8-8--|-0-0-0--7-8-3-3--|-0-0-0--12-12-12-12-12-|-3-----1-|

Chorus:
G|--------------------------------------------------|
D|--------------------------------------------------| --> x2
A|--------------------------------------------------|
E|--------------------------------------5-5-5-5-5-5-|
B|-7-0-12-10--8-8-8-8-8-8--3-3-3-3-3-3--------------|

G|------------------|
D|------------------|
A|------------------|
E|------------------|
B|-7-0-12-10--8-0-0-|

-->Verse x2

Second Chorus:
G|--------------------------------------------------|
D|--------------------------------------------------| --> x2
A|--------------------------------------------------|
E|--------------------------------------------------|
B|-7-0-12-10--8-8-8-8-8-8--2/3-3-3/5-5--0/2-2-2\0-0-|

G|----------------------------------------------------|
D|----------------------------------------------------|
A|----------------------------------------------------|
E|----------------------------------------------------|
B|-7-0-12-10--8-8-8-8-8-8--3/5-5-5/7-7--0/2-2-2/3-0-8-|

G|--------------------------------------------------|
D|--------------------------------------------------|
A|--------------------------------------------------|
E|--------------------------------------------------|
B|-7-0-12-10--8-8-8-8-8-8--2/3-3-3/5-5--0/2-2-2\0-0-|

Bridge (Sorry if it's a bit sloppy, there is a lot going on here.)
G|-----------------------------------------------------------|
D|-----------------------------------------------------------|
A|-----------------------------------------------------------|
E|-------------------------------3p2p0-------0-0h2p0---------|
B|-12~\0------8~\0------12~\0----------3p2p0---------3-5-2-3-|

G|---------------------------------------------------------------------------|
D|---------------------------------------------------------------------------|
A|---------------------------------------------------------------------------|
E|---------------------------------------------------------------------------|
B|-12~\0------8~\0------12~\0----0-2-3-5-8---8--8----10--10-10--10--10---10--|

G|---------------------------------------------------------------------------------|
D|---------------------------------------------------------------------------------|
A|---------------------------------------------------------------------------------|
E|---------------------------------------------------------------------------------|
B|-3--3-3--2--2-2--0--0-0--10--10-10--8---8--8---8---8--8----10--10-10--10-0-10h12-|

G|-------------------------------------------------------------------------------------|
D|-------------------------------------------------------------------------------------|
A|-------------------------------------------------------------------------------------|
E|-------------------------------------------------------------------------------------|
B|-0-1b2r-0--0-1b2r-0---0-----0-0-----0---8---8--8---8---8--8----10--10-10--10--10-10--|

G|-----------------------------------------------------------------------------------|
D|-----------------------------------------------------------------------------------|
A|-----------------------------------------------------------------------------------|
E|-----------------------------------------------------------------------------------|
B|-3--3-3--2--2-2--0--0-0--10--10-10---8---8--8---8---8--8-----10--10-10--10-0-10h12-|


G|-------------------------------------------------------------------------------|
D|------------------------------------------------------420-------------2--------|
A|-------------------------------------------------------------420-5-454---542---|
E|-------------------------------------------------------------------------------|
B|-0-1-2-0--0-1-2r-0---0-----0-0-1-2-0--0-----0-0-1-2-0--------------------------|

-->Second Chorus

Outro:
G|---------------------------------------------------------------------------------|
D|------------------------------------------------------420-------------2----------|
A|-----------------------45---------------02------------------420-5-454---542------|
E|---------------------------------------------------------------------------------|
B|-0-1-2-0--0-1-2-0--0-----0-0-1-2-0--0-----0--0-1-2-0--------------------------0--|

That should be it. Pretty much just root notes. Cool song.

Key:
|~ Let note ring
|/ Slide up
|\ Slide down
            
Submit corrections

comments powered by Disqus
↑ Back to top | Alter Bridge Bass for Coming Home. Lyrics for acoustic guitar and electric guitar. 1 Tablatures and chords are parodies/interpretations of the original songs. You may use it for private study, scholarship, research or language learning purposes only