» » »

Alter Bridge, Come To Life Bass tabs (ver.1)

Artists:  A B C D E F G H I J K L M N O P Q R S T U V W X Y Z # 

Come To Life Bass tabs (ver.1)

Alter Bridge Tabs
 Rating:
4/5 (4 votes)
Come To Life lessons Tabs too difficult? Try these video lessons and learn fast
                Alter Bridge 'Come to Life' Bass Tab
written by Mark Tremonti and Myles Kennedy

Tuning: 5 String Bass 1/2 step down (Bb Eb Ab Db Gb)

Intro:
Gb|----------|------------|-----------|-------------|
Db|----------|------------|-----------|-------------|
Ab|----------|------------|-----------|-------------|
Eb|----------|------------|-----------|-------------|
Bb|--rest----|-------0/12-|-0-0-------|-0-0-------1-|


Verse Riff 1
Gb|-------------------------|-------------------------|
Db|-------------------------|-------------------------|
Ab|-----2---3-----------0-2-|-----2---3-----------0-2-|
Eb|-------------------------|-------------------------|
Bb|-0-0---0---0--1-0-0-5----|-0-0---0---0--1-0-0-5----|

Gb|-------------------------|---------------------|
Db|-------------------------|---------------------|
Ab|-----2---3-----------0-2-|---------------------|
Eb|-------------------------|--3------------------|
Bb|-000---0---0--1-0-0-5----|--------5b--3b-------| slight bends

Play Verse Riff 3x total, then play:


Prechorus
Gb|----------|------------|
Db|----------|------------|
Ab|----------|------------|
Eb|----------|------------|
Bb|-0-0------|-(0)--------| Hold for 8 beats

Chorus
Gb|-------------------|-------------------|----------------|----------------|
Db|-------------------|-------------0-0-0-|----------------|----------------|
Ab|-----2---2-2---2-2-|----2---2-2--------|-0-----0-0--2-2-|---5--55--------|
Eb|-------------------|-------------------|----------------|-3--3---3~------|
Bb|-0-0----0---0------|0-0----0---0-------|----------------|-----------3-33-|

Gb|-------------------|-----------------------|--------------------|------------------|
Db|-------------------|-----------------------|--------------------|------------------|
Ab|-----2---2-2---2-2-|-0h1h2-22-2--0h2-5-5-4-|-0---0---0-0-0-0-00-|------------------|
Eb|-------------------|-----------------------|--------------------|-3--3-------------|
Bb|-0-0----0---0------|-----------------------|--------------------|------5-3-0-0-5-2-|


Play Verse 2 the same as the previous Verse, then:

Prechorus 2
Gb|----------|--------------|
Db|----------|--------------|
Ab|----------|--------------|
Eb|----------|--------------|
Bb|-0-0------|-(0)/12---12\-|

Play Chorus again


Break (pre-solo), play 2x
Gb|----------------|----------------|
Db|----------------|----------------|
Ab|----------------|----------------|
Eb|----7p5-----3h5-|----3p2----0h2--|
Bb|-0-0-----0------|-0-0-----0----3-|


Guitar Solo- play 3x
Gb|---------------|-----------------|----------------------------|------------------|
Db|---------------|-----------------|----------------------------|------------------|
Ab|---------------|-----------------|--------0h2-------0h2---0h2-|------------------|
Eb|---------------|-555-555-555-2-2-|----------------------------|-3-2--0h2p0-------|
Bb|-3-3-3--3-33-3-|-----------------|-0-1-0-3---0-1-0-3---0-3----|-------------3--3-|


Solo Break -
Gb|----------|-----------|----------|------------|-----------------|-----------------|
Db|----------|-----------|----------|------------|-----------------|-----------------|
Ab|----------|-----------|----------|------------|-----------------|-----------------|
Eb|----------|-3---2-----|-5------5s|-3-------5--|-7---------------|-----------------|
Bb|-0--------|-----------|----------|------------|---0-0-0-0-0-0-0-|-3-3-3-3-2-2-2-2-|


Gb|----------|------------|
Db|----------|------------|
Ab|----------|------------|
Eb|----------|-3--2--0----|
Bb|-5-5------|----------3-|


Play Chorus for the last time


Ending
Gb|-------------------------|-------------------------|
Db|-------------------------|-------------------------|
Ab|-----2---3-----------0-2-|-----2---3-----------0-2-|
Eb|-------------------------|-------------------------|
Bb|-0-0---0---0--1-0-0-5----|-0-0---0---0--1-0-0-5----|

Gb|-------------------------|----------------------------|
Db|-------------------------|----------------------------|
Ab|-----2---3-----------0-2-|--------0h2-------0h2---0h2-|
Eb|-------------------------|----------------------------|
Bb|-000---0---0--1-0-0-5----|-0-1-0-3---0-1-0-3---0-3----|

Gb|----------------------------|-------------|
Db|----------------------------|-------------|
Ab|--------0h2-------0h2---0h2-|-------------|
Eb|----------------------------|-------------|
Bb|-0-1-0-3---0-1-0-3---0-3----|--0----------|Hold last note til fade out
            
Submit corrections

comments powered by Disqus
↑ Back to top | Alter Bridge Bass for Come To Life. Lyrics for acoustic guitar and electric guitar. Tablatures and chords are parodies/interpretations of the original songs. You may use it for private study, scholarship, research or language learning purposes only