>
 >
Buried Alive

Buried Alive Bass Tabs

Alter Bridge - Buried Alive chords, tabs, tablatures, lyrics

Guitar lessons | Add/correct | Request | Top 50 tabs Artists:  A B C D E F G H I J K L M N O P Q R S T U V W X Y Z 0-9

Buried Alive Bass Tabs – Alter Bridge

CD, Sheet music, Poster

Do you like Buried Alive? Share with your friends now
Bass TabsTabs
-----------------------------------------------------------------------------
			     Buried Alive – Alter Bridge
-----------------------------------------------------------------------------


Tuning: Drop C (they might play in drop c#, but I do it in Drop C, if it doesn’t sound 
just make the string adjustment)

Intro (first half)
F|---------------------------------------------------------------------------|
C|---------------------------------------------------------------------------|
G|---3-------------1111---3333-------3-----------1-111-3-333-----------------|
C|-------3----0-------------------------3----3-------------------------------|

Intro (second half)
F|---------------------------------------------------------------------------|
C|---------------------------------------------------------------------------|
G|---0-3---------------1111--3-333----0-3------------1111--3333--------------|
C|--------0-3----0-0----------------------0-3--0-0---------------------------|

Verse (I twist and turn…)
F|---------------------------------------------------------------------------|
C|---------------------------------------------------------------------------|
G|-1------3------------------------------------------------------------------|
C---23-23--4--43-3-000--0-3-0-3-0-6-—8-23-23---4--43-3-000---0-3-0-3-0-6--—8-|

Interlude (I’m cold…and I’m so afraid)
F|---------------------------------------------------------------------------|
C|---------------------------------------------------------------------------|
G|---------------------------------------------------------------------------|
C|-----00----00-----00----00—---12/0-0----00-----00-----00-------------------|

Chorus (wherever you see this part, hold out the 1 and 3 at the end)
F|---------------------------------------------------------------------------|
C|---------------------------------------------------------------------------|
G|---3-------------1111---3333-------3-----------1-111-3-333-----------------|
C|-------3----0-------------------------3----3-------------------------------|

Preverse (repeat for next verse)
F|---------------------------------------------------------------------------|
C|---------------------------------------------------------------------------|
G|-1------3------------------------------------------------------------------|
C---23-23--4--43-3-000--0-3-0-3-0-6-—8-23-23---4--43-3-000---0-3-0-3-0-6--—8-|

Chorus (I’ve been buried alive…)
F|---------------------------------------------------------------------------|
C|---------------------------------------------------------------------------|
G|---3-------------1111---3333-------3-----------1-111-3-333-----------------|
C|-------3----0-------------------------3----3-------------------------------|

Breakdown Intro (rest first half, repeat twice before lower octave breakdown)
F|----------------------------------------------------------------------------|
C|----------------------------------------------------------------------------|
G|----------------------------------------------------------------------------|
C|--------------------------12-12-12-15-14-12-12-12-12-15-14-12-12-15-14-12---|

Breakdown (4x)
F|---------------------------------------------------------------------------|
C|---------------------------------------------------------------------------|
G|---------------------------------------------------------------------------|
C|----0-00-0-3-2-0--0-0-0-3-2-0--0-3-2-0-------------------------------------|

Bridge (Let me breathe again…) (option to play an octave higher for style)
F|---------------------------------------------------------------------------|
C|---------------------------------------------------------------------------|
G|---1---0---3---2-------1---0---3---2---------------------------------------|
C|---------------------------------------------------------------------------|

Breakdown (3x)4th time stop after first section
F|---------------------------------------------------------------------------|
C|---------------------------------------------------------------------------|
G|---------------------------------------------------------------------------|
C|----0-00-0-3-2-0--0-0-0-3-2-0--0-3-2-0-------------------------------------|
(4 note guitar lick)

Chorus (I’ve been buried alive…)
F|---------------------------------------------------------------------------|
C|---------------------------------------------------------------------------|
G|---3-------------1111---3333-------3-----------1-111-3-333-----------------|
C|-------3----0-------------------------3----3-------------------------------|

Post-chorus
F|---------------------------------------------------------------------------|
C|---------------------------------------------------------------------------|
G|---3-------------1111---3333-------3-----------1-111-3-333-----------------|
C|-------3----0-------------------------3----3-------------------------------|

Outro
(2x)
F|---------------------------------------------------------------------------|
C|---------------------------------------------------------------------------|
G|---------------------------------------------------------------------------|
C|----0-00-0-3-2-0--0-0-0-3-2-0--0-3-2-0-------------------------------------|

Then
F|---------------------------------------------------------------------------|
C|---------------------------------------------------------------------------|
G|--11---------33----------5555----------------------------------------------|
C|-------33-----------33-------------12/-------------------------------------|


| /  slide up
| \  slide down
| h  hammer-on
| p  pull-off
| ~  vibrato
| +  harmonic
| x  Mute note
=============================================================================





Comments


Popular Alter Bridge tabs & chords
All Hope Is Gone Bass Tabs
Save Me Bass Tabs
Slip To The Void Bass Tabs
All Hope Is Gone Chords
In Loving Memory 2 Chords
Burn It Down 2 Tabs
Find The Real 1 Tabs
Never Born To Follow Tabs
Waters Rising 1 Tabs
Ghosts Of Days Gone By Ukulele


Song lyrics



↑ Back to top | Tablatures and chords are parodies/interpretations of the original songs. You may use it for private study, scholarship, research or language learning purposes only
© 2014 AZChords.com Contact us | Privacy policy | DMCA | Add/correct tabs | Request tabs | Top 50 tabs