» » »

Broken Wings Tabs (ver.5)

Artists:  A B C D E F G H I J K L M N O P Q R S T U V W X Y Z # 

Broken Wings Tabs (ver.5)

Alter Bridge
Rating:
0/5 (0 votes)

Hard to play? Try these video lessons and learn fast.
                (Intro1)
Alter Bridge
Broken Wings
Intro

Key: C#

Tuning: Standard EADGBe

          Bbm                  G#                    F#                     F
e|-------------------|-------------------|-----9------------------|----8-----------------|
B|----6--------------|-------------------|---------9-9h11--11\9-7-|------4--4-4h6--6p4\2-|
G|------8-6------6---|-5--3---5h6---6----|-3-----8----------------|----------------------|
D|----------8--6---6-|-----------------6-|------------------------|----------------------|
A|-------------------|-------------------|------------------------|----------------------|
E|-6-----------------|-4----4-----4------|-2-2--------------------|-1-1------------------|

          Bbm                   G#                     F#                   F
e|----9-8-6----------|---------------------|-----9------------------|-----8----------|
B|----------6--------|-----------------6---|---------9-9h11--11\9-7-|-------4--4-4h6-|
G|---------------6---|-5--3------6---6---6-|-------8----------------|----------------|
D|-------------6---6-|-------------6-------|------------------------|----------------|
A|-------------------|---------------------|------------------------|----------------|
E|-6-----------------|-4-----4-4-----------|-2-2--------------------|-1-1------------|

         C#                Ebm               Bbm
e|-----------------|-----------------|-----------------|
B|-----------------|-----------------|-----------------|
G|-----------------|-----------------|-----------------|
D|-----3---4-3---3-|-----3---4-3---3-|-----3---4-3---3-|
A|-4-4---4-----4---|-6-6---6-----6---|-1-1---1-----1---|
E|-----------------|-----------------|-----------------|
                                              x2

         C#                Ebm                       Bbm
e|-----------------|-----------------|---------------------------------|
B|-----------------|-----------------|---------------------------------|
G|-----------------|-----------------|-------------------------3-------|
D|-----3---4-3---3-|-----3---4-3---3-|-----3---4-3---3-----3-----3---3-|
A|-4-4---4-----4---|-6-6---6-----6---|-1-1---1-----1---1-1---1-----1---|
E|-----------------|-----------------|---------------------------------|
            
Hard to play? Try these video lessons and learn fast. | Correct




comments powered by Disqus
↑ Back to top | Tablatures and chords are parodies/interpretations of the original songs. You may use it for private study, scholarship, research or language learning purposes only