>
 >
Broken Wings 2

Broken Wings 2 Guitar Tabs

Alter Bridge - Broken Wings 2 chords, tabs, tablatures, lyrics

Guitar lessons | Add/correct | Request | Top 50 tabs Artists:  A B C D E F G H I J K L M N O P Q R S T U V W X Y Z 0-9

Broken Wings 2 Guitar Tabs – Alter Bridge

CD, Sheet music, Poster

Do you like Broken Wings 2? Share with your friends now
Bass TabsBass Tabs v2ChordsTabsTabs v2Tabs v3Tabs v4Ukulele
Gtr I (Bb Ab Db Gb Bb Eb) - 'Clean'
Gtr II (Bb Ab Db Gb Bb Eb) - 'Distorted'
Gtr III (Bb Ab Db Gb Bb Eb) - 'Untitled'


 Intro
  Q=70
  Bm7                              A
 4/4
  Gtr I
  Q   S    +S  S S +Q   S  S S S   Q  E. S S S S S +S  E S
|--------------------------------|-------------------------|
|----10--------------------------|-------------------------|
|-----9b10r(9)p7-------------7---|-6-------6s7---7-(7)-----|
|----------------9-(9)---------9-|----9--------9-------7---|
|-------------------------/9-----|-0-----0-----------------|
|-0------------------------------|-----------------------0-|


  G6
                    ~~~          ~~~
  E  S S  S S S  S  a  E.  T  T  E. S
|--------10p0--------------------------|
|---------------10-10s12--12p10--------|
|-------------------------------12-----|
|-9------------------------------------|
|---10---------------------------------|
|-8----8------8---------------------0--|


  F#7
                           ~
  E S S S S S S a  E.  T T Q
|-------9p0-------------------|
|-----------------------------|
|-------------9-9s11--11p9s7--|
|-8---------------------------|
|---9-------------------------|
|-7---7-----7-----------------|


  Bm                          A
                                                   ~~
  Q   S S S S +Q   S  S S S   Q  E. T T S S S S    E. S
|----10-9-7-----------------|---------------------------|
|-----------7-(7)-----------|---------------------------|
|-----------------------7---|-6---------7---7-9b11-7----|
|-------------------------9-|----9--7h9---9-------------|
|--------------------/9-----|-0-------------------------|
|-0-------------------------|-------------------------0-|


  G6                                    F#7
                    ~~~~~~       ~~~                     ~~
  E  S S  S S S  S  a  E.  T  T  E. S   E S S S S S S a  H
|--------10p0-------------------------|-------9p0-------------|
|---------------10-10-12--12p10-------|-----------------------|
|-------------------------------12----|-------------9-9s11----|
|-9-----------------------------------|-8---------------------|
|---10--------------------------------|---9-------------------|
|-8----8------8---------------------0-|-7---7-----7-----------|


  Dadd4           Em9               Bmadd6
  Gtr I
  S S S S S S S S S S S S S S S S   S S S S S S S S S S S S S S S S
|---------------------------------|---------------------------------|
|---------------------------------|---------------------------------|
|---------0---------------0-------|---------0---------------0-------|
|---4-------4---4---4-------4---4-|---4-------4---4---4-------4---4-|
|-----5-------5-------5-------5---|-----5-------5-------5-------5---|
|-3-----3---------5-----5---------|-0-----0---------0-----0---------|


  Dadd4           Em9               Bmadd6
  S S S S S S S S S S S S S S S S   S S S S S S S S S S S S S S S S
|---------------------------------|---------------------------------||
|---------------------------------|-------------------------0-------||
|---------0---------------0-------|---------0-----------------0-----||
|---4-------4---4-----4-----4---4-|---4-------4---4---4---------4---||
|-----5-------5-----5---------5---|-----5-------5-------5---------5-||
|-3-----3---------5-----5---------|-0-----0---------0-----0---------||


 Verse
  Dadd4           Em9               Bmadd6
  S S S S S S S S S S S S S S S S   S S S S S S S S S S S S S S S S
|---------------------------------|---------------------------------|
|---------------------------------|---------------------------------|
|---------0---------------0-------|---------0---------------0-------|
|---4-------4---4---4-------4---4-|---4-------4---4---4-------4---4-|
|-----5-------5-------5-------5---|-----5-------5-------5-------5---|
|-3-----3---------5-----5---------|-0-----0---------0-----0---------|


  Dadd4           Em9               Bmadd6
  S S S S S S S S S S S S S S S S   S S S S S S S S S S S S S S S S
|---------------------------------|---------------------------------|
|---------------------------------|---------------------------------|
|---------0---------------0-------|---------0---------------0-------|
|---4-------4---4---4-------4---4-|---4-------4---4---4-------4---4-|
|-----5-------5-------5-------5---|-----5-------5-------5-------5---|
|-3-----3---------5-----5---------|-0-----0---------0-----0---------|


  Dadd4           Em9               Bmadd6
  S S S S S S S S S S S S S S S S   S S S S S S S S S S S S S S S S
|---------------------------------|---------------------------------|
|---------------------------------|---------------------------------|
|---------0---------------0-------|---------0---------------0-------|
|---4-------4---4---4-------4---4-|---4-------4---4---4-------4---4-|
|-----5-------5-------5-------5---|-----5-------5-------5-------5---|
|-3-----3---------5-----5---------|-0-----0---------0-----0---------|


  Dadd4           Em9               Bmadd6
  S S S S S S S S S S S S S S S S   S S S S S S S S S S S S S S S   S
|---------------------------------|-----------------------------------||
|---------------------------------|-------------------------0---------||
|---------0---------------0-------|---------0-----------------0-------||
|---4-------4---4---4-------4---4-|---4-------4---4---4---------0-----||
|-----5-------5-------5-------5---|-----5-------5-------5---------/12-||
|-3-----3---------5-----5---------|-0-----0---------0-----0-----------||


 Pre-Chorus
  Aadd9                G6                   Bmadd6
  Gtrs I, II
   S  S  S  S S S S  S S S  S S S S S  S    S S S S S S S S S S S S S S   S  S
|-------------0-----------------0---------|------------------------------------|
|---------------0-----------------0-------|------------------------------------|
|-----------------0-----------------0-----|---------0---------------0----------|
|----11-------------11---9----------------|---4-------4---4---4-------4-----11-|
|-------12-----------------10---------10\-|-----5-------5-------5-------/12-12-|
|-10-------10----------8------8-----------|-0-----0---------0-----0------------|


  Aadd9                G6                   Bmadd6
   S  S  S  S S S S  S S S  S S S S S  S    S S S S S S S S S S S S S S   S  S
|-------------0-----------------0---------|------------------------------------|
|---------------0-----------------0-------|------------------------------------|
|-----------------0-----------------0-----|---------0---------------0----------|
|----11-------------11---9----------------|---4-------4---4---4-------4-----11-|
|-------12-----------------10---------10\-|-----5-------5-------5-------/12-12-|
|-10-------10----------8------8-----------|-0-----0---------0-----0------------|


  A9                   G6              F#11
   S  S  S  S S S S  S S S  S S S E.    W
|-------------0-----------------0----|-!0-------------||
|---------------0-----------------0--|-!0-------------||
|-----------------0------------------|-!0-------------||
|----11-------------11---9-----------|-!8-------------||
|-------12-----------------10--------|-!9-------------||
|-10-------10----------8------8------|-!7-------------||
|
| Gtr III
|  W                                    H    Q  E S S
|------------------------------------|----------------||
|------------------------------------|----------------||
|------------------------------------|----------------||
|------------------------------------|----------------||
|------------------------------------|----------------||
|------------------------------------|------------0-0-||


 Chorus
  Dsus2                    A/C#
  Gtr II
  Q  E. S +S S E E   E      Q   E.  S +S  S  Q.
  |  |  |  | | | |   |      |   |   |  |  |  |
  /  /  /  / / / /   /      /   /   /  /  /  /

  Gtr III
  Q  E. S  S S E S S S S    Q   E.  S  S  S  E   S  S S S
|------------------------|--------------------------------|
|-7--7--7--7-7-7-7-7-----|--------------------------------|
|-7--7--7--7-7-7-7-7-----|-14--14--14-14-14-14--14-14-----|
|-0--0--0--0-0-0-0-0-----|-11--11--11-11-12-12--12-12-----|
|-0--0--0--0-0-0-0-0-0-0-|--0---0---0--0--0--0---0--0-----|
|--------------------0-0-|----------------------------0-0-|


  Bmadd9                   G            Gsus4          G
  Q  E. S +S S E S S E      E. S  E.  S  S  S  S  S +S  S E
  |  |  |  | | | | | |      |  |  |   |  |  |  |  |  |  | |
  /  /  /  / / / / / /      /  /  /   /  /  /  /  /  /  / /

  Q  E. S  S S E S S S S    E. S  E.  S  S  S  S  S  S  S S S
|-2--2--2--2-2-2-2-2-----|------------------------------------|
|-2--2--2--2-2-2-2-2-----|------------------------------------|
|-4--4--4--4-4-4-4-4-----|--0-----0---0--0--0--0--0--0--0-----|
|-4--4--4--4-4-4-4-4-0-0-|--9-----9---9-10-10-10-10-10--9-----|
|-2--2--2--2-2-2-2-2-0-0-|-10----10--10-10-10-10-10-10-10-0-0-|
|-0--0--0--0-0-0-0-0-0-0-|--8--8--8---8--8--8--8--8--8--8-0-0-|


  Dsus2                      A/C#
  Q    E. S +S S E Q          E. S  E.  S +S  S  E  Q
  |    |  |  | | | |          |  |  |   |  |  |  |  |
  /    /  /  / / / /          /  /  /   /  /  /  /  /

  E. S E. S  S S E S S S S    Q     E.  S  S  S  E  S  S S S
|--------------------------|---------------------------------|
|-7--7-7--7--7-7-7---------|---------------------------------|
|-7--7-7--7--7-7-7-7s9-9-0-|-14----14--14-14-14-14-14-14-----|
|-0--0-0--0--0-0-0-------0-|-11----11--11-11-11-11-11-11-----|
|-0--0-0--0--0-0-0-5s7-7-0-|--0-----0---0--0--0--0--0--0-----|
|--------------------------|-----------------------------0-0-|


  Bmadd9                   G     Gsus4     G
  Q  E. S +S S E S S E      E. S  E.        S +E     Q.
  |  |  |  | | | | | |      |  |  |         |  |     |
  /  /  /  / / / / / /      /  /  /         /  /     /

  Q  E. S  S S E S S S S    Q     S   S  S  S  S  S  E   E.  S
|-2--2--2--2-2-2-2-2-----|-------------------------------------||
|-2--2--2--2-2-2-2-2-----|-------------------------------------||
|-4--4--4--4-4-4-4-4-----|--0-----0---0--0--0--0--0--0---0-----||
|-4--4--4--4-4-4-4-4-0-0-|--9----10--10-10-10-12-12-12--12-----||
|-2--2--2--2-2-2-2-2-0-0-|-10----10--10-10-10-10-10-10--10--10-||
|-0--0--0--0-0-0-0-0-0-0-|--8-----8---8--8--8--8--8--8---8---8-||


 Interlude
  Dadd4           Em9               Bmadd6
  Gtrs I, II
  S S S S S S S S S S S S S S S S    S  S S S S S S S S S S S S S S S
|---------------------------------|-----------------------------------|
|---------------------------------|-----------------------------------|
|---------0---------------0-------|-----------0---------------0-------|
|---4-------4---4---4-------4---4-|-----4-------4---4---4-------4---4-|
|-----5-------5-------5-------5---|-------5-------5-------5-------5---|
|-3-----3---------5-----5---------|--0------0---------0-----0---------|
|
| Gtr III
| >
| W                                 +Q        Q       H
|---------------------------------|-----------------------------------|
|---------------------------------|-----------------------------------|
|---------------------------------|-----------------------------------|
|---------------------------------|-----------------------------------|
|-5-------------------------------|-(5)-------------------------------|
|-3-------------------------------|-(3)-------------------------------|


 Verse
  Dadd4           Em9               Bmadd6
  S S S S S S S S S S S S S S S S   S S S S S S S S S S S S S S S S
|---------------------------------|---------------------------------||
|---------------------------------|-------------------------0-------||
|---------0---------------0-------|---------0-----------------0-----||
|---4-------4---4-----4-----4---4-|---4-------4---4---4---------4---||
|-----5-------5-----5---------5---|-----5-------5-------5---------5-||
|-3-----3---------5-----5---------|-0-----0---------0-----0---------||


  Dadd4           Em9               Bmadd6
  Gtrs I, II
  S S S S S S S S S S S S S S S S   S S S S S S S S S S S S S S S S
|---------------------------------|---------------------------------|
|---------------------------------|---------------------------------|
|---------0---------------0-------|---------0---------------0-------|
|---4-------4---4---4-------4---4-|---4-------4---4---4-------4---4-|
|-----5-------5-------5-------5---|-----5-------5-------5-------5---|
|-3-----3---------5-----5---------|-0-----0---------0-----0---------|


  Dadd4           Em9               Bmadd6
  S S S S S S S S S S S S S S S S   S S S S S S S S S S S S S S S S
|---------------------------------|---------------------------------|
|---------------------------------|---------------------------------|
|---------0---------------0-------|---------0---------------0-------|
|---4-------4---4---4-------4---4-|---4-------4---4---4-------4---4-|
|-----5-------5-------5-------5---|-----5-------5-------5-------5---|
|-3-----3---------5-----5---------|-0-----0---------0-----0---------|


  Dadd4           Em9               Bmadd6
  Gtr I
  S S S S S S S S S S S S S S S S   S S S S S S S S S S S S S S S S
|---------------------------------|---------------------------------|
|---------------------------------|---------------------------------|
|---------0---------------0-------|---------0---------------0-------|
|---4-------4---4---4-------4---4-|---4-------4---4---4-------4---4-|
|-----5-------5-------5-------5---|-----5-------5-------5-------5---|
|-3-----3---------5-----5---------|-0-----0---------0-----0---------|


  Dadd4           Em9               Bmadd6
  S S S S S S S S S S S S S S S S   S S S S S S S S S S S S S S S   S
|---------------------------------|-----------------------------------||
|---------------------------------|-------------------------0---------||
|---------0---------------0-------|---------0-----------------0-------||
|---4-------4---4---4-------4---4-|---4-------4---4---4---------0-----||
|-----5-------5-------5-------5---|-----5-------5-------5---------/12-||
|-3-----3---------5-----5---------|-0-----0---------0-----0-----------||


 Pre-Chorus
  Aadd9                G6                   Bmadd6
  Gtrs I, II
   S  S  S  S S S S  S S S  S S S S S  S    S S S S S S S S S S S S S S   S  S
|-------------0-----------------0---------|------------------------------------|
|---------------0-----------------0-------|------------------------------------|
|-----------------0-----------------0-----|---------0---------------0----------|
|----11-------------11---9----------------|---4-------4---4---4-------4-----11-|
|-------12-----------------10---------10\-|-----5-------5-------5-------/12-12-|
|-10-------10----------8------8-----------|-0-----0---------0-----0------------|


  Aadd9                G6                   Bmadd6
   S  S  S  S S S S  S S S  S S S S S  S    S S S S S S S S S S S S S S   S  S
|-------------0-----------------0---------|------------------------------------|
|---------------0-----------------0-------|------------------------------------|
|-----------------0-----------------0-----|---------0---------------0----------|
|----11-------------11---9----------------|---4-------4---4---4-------4-----11-|
|-------12-----------------10---------10\-|-----5-------5-------5-------/12-12-|
|-10-------10----------8------8-----------|-0-----0---------0-----0------------|


  A9                   G6              F#11
   S  S  S  S S S S  S S S  S S S E.    W
|-------------0-----------------0----|-!0-----------------------||
|---------------0-----------------0--|-!0-----------------------||
|-----------------0------------------|-!0-----------------------||
|----11-------------11---9-----------|-!8-----------------------||
|-------12-----------------10--------|-!9-----------------------||
|-10-------10----------8------8------|-!7-----------------------||
|
| Gtr III
|  W                                    H    Q   S   S   S   S
|------------------------------------|--------------------------||
|------------------------------------|--------------------------||
|------------------------------------|--------------------------||
|------------------------------------|--------------------------||
|------------------------------------|----------<5>-<5>-<5>-<5>-||
|------------------------------------|--------------------------||


 Chorus
  Dsus2                    A/C#
  Gtr II
  Q  E. S +S S E E   E      Q   E.  S +S  S  Q.
  |  |  |  | | | |   |      |   |   |  |  |  |
  /  /  /  / / / /   /      /   /   /  /  /  /

  Gtr III
  Q  E. S  S S E S S S S    Q   E.  S  S  S  E   S  S S S
|------------------------|--------------------------------|
|-7--7--7--7-7-7-7-7-----|--------------------------------|
|-7--7--7--7-7-7-7-7-----|-14--14--14-14-14-14--14-14-----|
|-0--0--0--0-0-0-0-0-----|-11--11--11-11-12-12--12-12-----|
|-0--0--0--0-0-0-0-0-0-0-|--0---0---0--0--0--0---0--0-----|
|--------------------0-0-|----------------------------0-0-|


  Bmadd9                   G            Gsus4          G
  Q  E. S +S S E S S E      E. S  E.  S  S  S  S  S +S  S E
  |  |  |  | | | | | |      |  |  |   |  |  |  |  |  |  | |
  /  /  /  / / / / / /      /  /  /   /  /  /  /  /  /  / /

  Q  E. S  S S E S S S S    E. S  E.  S  S  S  S  S  S  S S S
|-2--2--2--2-2-2-2-2-----|------------------------------------|
|-2--2--2--2-2-2-2-2-----|------------------------------------|
|-4--4--4--4-4-4-4-4-----|--0-----0---0--0--0--0--0--0--0-----|
|-4--4--4--4-4-4-4-4-0-0-|--9-----9---9-10-10-10-10-10--9-----|
|-2--2--2--2-2-2-2-2-0-0-|-10----10--10-10-10-10-10-10-10-0-0-|
|-0--0--0--0-0-0-0-0-0-0-|--8--8--8---8--8--8--8--8--8--8-0-0-|


  Dsus2                      A/C#
  Q    E. S +S S E Q          E. S  E.  S +S  S  E  Q
  |    |  |  | | | |          |  |  |   |  |  |  |  |
  /    /  /  / / / /          /  /  /   /  /  /  /  /

  E. S E. S  S S E S S S S    Q     E.  S  S  S  E  S  S S S
|--------------------------|---------------------------------|
|-7--7-7--7--7-7-7---------|---------------------------------|
|-7--7-7--7--7-7-7-7s9-9-0-|-14----14--14-14-14-14-14-14-----|
|-0--0-0--0--0-0-0-------0-|-11----11--11-11-11-11-11-11-----|
|-0--0-0--0--0-0-0-5s7-7-0-|--0-----0---0--0--0--0--0--0-----|
|--------------------------|-----------------------------0-0-|


  Bmadd9
  Q  E. S +S S E S S E
  |  |  |  | | | | | |
  /  /  /  / / / / / /

  Q  E. S  S S E S S S S
|-2--2--2--2-2-2-2-2-----|
|-2--2--2--2-2-2-2-2-----|
|-4--4--4--4-4-4-4-4-----|
|-4--4--4--4-4-4-4-4-0-0-|
|-2--2--2--2-2-2-2-2-0-0-|
|-0--0--0--0-0-0-0-0-0-0-|


  G       Gsus4        G
   E.   S  E.        S +E     Q.
   |    |  |         |  |     |
   /    /  /         /  /     /

   E  S S  S   S  S  S  S  S  S   S  S      +S   +S   S
|-------------------------------------------------------||
|-------------------------------------------------------||
|--0-------0---0--0--0----------------------------------||
|--9------10--10-10-10-12-12-12--12-11b12==(11)r(11)----||
|-10------10--10-10-10-10-10-10--10------------------12-||
|--8--8-8--8---8--8--8--8--8--8---8---------------------||


 Bridge
  A     Asus4        G     Gsus4 G        Bm
                 ~~
   E  S  S  +S   E S  E  S  S  S  S S S   S E S S E S S E S S E S
|---------------------------------------|-------------------------|
|---------------------------------------|-------------------------|
|---------------14-0--------------------|-4-4-4-6-6-6-7-7-7-9-9-0-|
|-11-11-12-(12)----0--9--9-10-10--9-----|-----------------------0-|
|--0--0--0--(0)------10-10-10-10-10-----|-2-2-2-4-4-4-5-5-5-7-7-0-|
|---------------------8--8--8--8--8-0-0-|---0-0---0-0---0-0---0---|


  A     Asus4        G     Gsus4 G        B5
                 ~~
   E  S  S  +S   E S  E  S  S  S  S S S   S E. E S S +E  E S E S
|---------------------------------------|------------------------|
|---------------------------------------|------------------------|
|---------------14-0--------------------|-4------4---------4-----|
|-11-11-12-(12)----0--9--9-10-10--9-----|------------------------|
|--0--0--0--(0)------10-10-10-10-10-----|-2------2---------2-----|
|---------------------8--8--8--8--8-0-0-|---0--0---0-(0)-0---0-0-|


  A     Asus4        G     Gsus4 G          B5
                 ~~
   E  S  S  +S   E S  E  S  S  S  S  S  S   S S S S S S E S S S S S T T S S
|-----------------------------------------|---------------------------------|
|-----------------------------------------|---------------------------------|
|---------------14-0----------------------|-----------0---------0-----------|
|-11-11-12-(12)----0--9--9-10-10--9-------|-------4s5---4---2h4---4p2p0-----|
|--0--0--0--(0)------10-10-10-10-10-------|---1s2-----------------------4p0-|
|---------------------8--8--8--8--8-19\-0-|-0-------------0-----------------|


  A     Asus4        G        GGus4
                 ~~
   E  S  S  +S   E S  S  S  S    S  S  S  S S
|---------------------------------------------|
|---------------------------------------------|
|---------------14-0--------------------------|
|-11-11-12-(12)----0--9--9--9---10-10--9--9-8-|
|--0--0--0--(0)------10-10-10---10-10-10-10-9-|
|---------------------8--8--8----8--8--8--8-7-|


  E S S E S S  S  S  S  S  S  E  +S
|-------------------------------------||
|-------------------------------------||
|-------------------------11-12-(12)\-||
|-8-8-8-9-9-9-11-11-11-11-------------||
|-9-9-9-9-9-9--9--9--9--9--9-10-(10)\-||
|-7-7-7-7-7-7--7--7--7--7-------------||


 Chorus
  Dsus2                    A/C#
  Gtr II
  Q  E. S +S S E E   E      Q   E.  S +S  S  Q.
  |  |  |  | | | |   |      |   |   |  |  |  |
  /  /  /  / / / /   /      /   /   /  /  /  /

  Gtr III
  Q  E. S  S S E S S S S    Q   E.  S  S  S  E   S  S S S
|------------------------|--------------------------------|
|-7--7--7--7-7-7-7-7-----|--------------------------------|
|-7--7--7--7-7-7-7-7-----|-14--14--14-14-14-14--14-14-----|
|-0--0--0--0-0-0-0-0-----|-11--11--11-11-12-12--12-12-----|
|-0--0--0--0-0-0-0-0-0-0-|--0---0---0--0--0--0---0--0-----|
|--------------------0-0-|----------------------------0-0-|


  Bmadd9                   G            Gsus4          G
  Q  E. S +S S E S S E      E. S  E.  S  S  S  S  S +S  S E
  |  |  |  | | | | | |      |  |  |   |  |  |  |  |  |  | |
  /  /  /  / / / / / /      /  /  /   /  /  /  /  /  /  / /

  Q  E. S  S S E S S S S    E. S  E.  S  S  S  S  S  S  S S S
|-2--2--2--2-2-2-2-2-----|------------------------------------|
|-2--2--2--2-2-2-2-2-----|------------------------------------|
|-4--4--4--4-4-4-4-4-----|--0-----0---0--0--0--0--0--0--0-----|
|-4--4--4--4-4-4-4-4-0-0-|--9-----9---9-10-10-10-10-10--9-----|
|-2--2--2--2-2-2-2-2-0-0-|-10----10--10-10-10-10-10-10-10-0-0-|
|-0--0--0--0-0-0-0-0-0-0-|--8--8--8---8--8--8--8--8--8--8-0-0-|


  Dsus2                              A/C#
  E. S S S S  S  S  E  S  S  S S S    Q   E.  S  S  S  E  S  S S S
|----------------------------------|-------------------------------|
|----------------------------------|-------------------------------|
|-7--7-7s9-9s11-11-11-12-12s11-9---|-14--14--14-14-14-14-14-14-----|
|--------------------------------0-|-11--11--11-11-12-12-12-12-----|
|-5--5-5s7-7s=9--9--9-10-10s=9-7-0-|--0---0---0--0--0--0--0--0-----|
|----------------------------------|---------------------------0-0-|


  Bmadd9                     G        Gsus4       G
  S E. E S S +E  E S S S S    E  S  S  S  S  S  S  Q   +E.  +S
|--------------------------|-------------------------------------||
|--------------------------|-------------------------------------||
|-4------4---------4-------|-------------------------------------||
|--------------------------|--9--9--9-10-10-10-10-12--(12)-(12)\-||
|-2------2---------2-------|-10-10-10-10-10-10-10-10--(10)-(10)\-||
|---0--0---0-(0)-0---0-0-0-|--8--8--8--8--8--8--8--8---(8)--(8)\-||


 Outro
  Bm7                              A
 4/4
  Gtr I
  Q   S    +S  S S +Q   S  S S S   Q  E. S S S S S +S  E S
|--------------------------------|-------------------------|
|----10--------------------------|-------------------------|
|-----9b10r(9)p7-------------7---|-6-------6s7---7-(7)-----|
|----------------9-(9)---------9-|----9--------9-------7---|
|-------------------------/9-----|-0-----0-----------------|
|-0------------------------------|-----------------------0-|


  G6
                    ~~~          ~~~
  E  S S  S S S  S  a  E.  T  T  E. S
|--------10p0--------------------------|
|---------------10-10s12--12p10--------|
|-------------------------------12-----|
|-9------------------------------------|
|---10---------------------------------|
|-8----8------8---------------------0--|


  F#7
                           ~
  E S S S S S S a  E.  T T Q
|-------9p0-------------------|
|-----------------------------|
|-------------9-9s11--11p9s7--|
|-8---------------------------|
|---9-------------------------|
|-7---7-----7-----------------|


  Bm                          A
                                                   ~~
  Q   S S S S +Q   S  S S S   Q  E. T T S S S S    E. S
|----10-9-7-----------------|---------------------------|
|-----------7-(7)-----------|---------------------------|
|-----------------------7---|-6---------7---7-9b11-7----|
|-------------------------9-|----9--7h9---9-------------|
|--------------------/9-----|-0-------------------------|
|-0-------------------------|-------------------------0-|


  G6                                    F#7
                    ~~~~~~       ~~~
  E  S S  S S S  S  a  E.  T  T  E. S   E S S S S S S a  E.  T T Q
|--------10p0-------------------------|-------9p0-------------------|
|---------------10-10-12--12p10-------|-----------------------------|
|-------------------------------12----|-------------9-9s11--11p9s7--|
|-9-----------------------------------|-8---------------------------|
|---10--------------------------------|---9-------------------------|
|-8----8------8---------------------0-|-7---7-----7-----------------|


  Bm
              |-----5-----|     |--3--|
  Q.    S  S  S  S  S  S  S  S  T  T  T  S  S    S  S  S  S  a  E  E  +H
|---------------------------------------------|------------------------------*|
|---------------------------------------------|------------------------------*|
|------------------------15-16-18-16-15-16----|-15----------------18-(18)----*|
|---------------14-16-17-------------------17-|----16-17-14-14h16------------*|
|------14-16-17-------------------------------|------------------------------*|
|-0-------------------------------------------|------------------------------*|




--------------------------------------------------------------------------------


Duration Legend
---------------
W - whole; H - half; Q - quarter; E - 8th; S - 16th; T - 32nd; X - 64th; a - acciaccatura
+ - note tied to previous; . - note dotted; .. - note double dotted
Uncapitalized letters represent notes that are staccato (1/2 duration)
Irregular groupings are notated above the duration line
Duration letters will always appear directly above the note/fret number it represents the
duration for.  Duration letters with no fret number below them represent rests.  Multi-
bar rests are notated in the form Wxn, where n is the number of bars to rest for.  Low
melody durations appear below the staff

Tablature Legend
----------------
 h   - hammer-on
 p   - pull-off
 b   - bend
 pb  - pre-bend
 r   - bend release (if no number after the r, then release immediately)
 /\  - slide into or out of (from/to "nowhere")
 s   - legato slide
 S   - shift slide
 - natural harmonic
[n]  - artificial harmonic
n(n) - tapped harmonic
 ~   - vibrato
 tr  - trill
 T   - tap
 TP  - trem. picking
 PM  - palm muting
\n/  - tremolo bar dip; n = amount to dip
 \n  - tremolo bar down
 n/  - tremolo bar up
/n\  - tremolo bar inverted dip
 =   - hold bend; also acts as connecting device for hammers/pulls
 <> - volume swell (louder/softer)
 x   - on rhythm slash represents muted slash
 o   - on rhythm slash represents single note slash

Misc Legend
-----------
 |  - bar
||  - double bar
||o - repeat start
o|| - repeat end
*|  - double bar (ending)
 :  - bar (freetime)
 $  - Segno
 &  - Coda
Tempo markers -  = BPM(8/16=s8/s16), where s8 = swing 8ths, s16 = swing 16ths





Comments


Popular Alter Bridge tabs & chords
Break Me Down Bass Tabs
Come To Life 2 Bass Tabs
I Know It Hurts Bass Tabs
Broken Wings 3 Tabs
Cry A River Tabs
Rise Today 1 Tabs
Still Remains Tabs
Watch Over You 2 Tabs
Wonderful Life 2 Tabs
Shed My Skin Ukulele


Song lyrics



↑ Back to top | Tablatures and chords are parodies/interpretations of the original songs. You may use it for private study, scholarship, research or language learning purposes only
© 2014 AZChords.com Contact us | Privacy policy | DMCA | Add/correct tabs | Request tabs | Top 50 tabs