» » »

Alpha Drive, Waste Bass tabs (ver.1)

Artists:  A B C D E F G H I J K L M N O P Q R S T U V W X Y Z # 

Waste Bass tabs (ver.1)

Alpha Drive Tabs
 Rating:
4/5 (4 votes)
Waste lessons Tabs too difficult? Try these video lessons and learn fast
1
                Notation:					
p    - pull off					
h    - hammer on					
...  - palm mute                                 
(..) - fade out of palm mute
/    - slide down                               
\    - slide up				        
~    - hold note                                 
x    - pause
()   - harmonic

*Tunning: Db, Ab, Db, Gb *


Intro   
Gb|---------------------------------------|
Db|---------------------------------------|
Ab|-8-8---10-10-10-10---12-12-12-12-12-12-| x4
Db|---------------------------------------|

Verse
Gb|-------------------------------------------------|
Db|-------------------------------------------------|
Ab|-8-8-8-8---10-10-10-10---12-12-12-12-12-12-12-12-| x4
Db|-------------------------------------------------|


Chorus
Gb|-----------------------------------------|
Db|------------------------------------10---|
Ab|-8x----10-10x--12-12-12-12----10h12------| x4
Db|-----------------------------------------|


Intro
Gb|---------------------------------------|
Db|---------------------------------------|
Ab|-8-8---10-10-10-10---12-12-12-12-12-12-| x3
Db|---------------------------------------|


Verse
Gb|-------------------------------------------------|
Db|-------------------------------------------------|
Ab|-8-8-8-8---10-10-10-10---12-12-12-12-12-12-12-12-| x4
Db|-------------------------------------------------|


Chorus
Gb|-----------------------------------------|
Db|------------------------------------10---|
Ab|-8x----10-10x--12-12-12-12----10h12------| x4
Db|-----------------------------------------|

Gb|-----------------------------------------|
Db|------------------------------------10---|
Ab|-8x----10-10x--12-12-12-12----10h12------| x4
Db|-----------------------------------------|


Breakdown      
Gb|--------------------------------------------------|
Db|----------------------------------------------10--|
Ab|--8~----------10~----------12~----------10h12-----| 
Db|--------------------------------------------------|

Gb|---------------------------------------------|
Db|---------------------------------------------|
Ab|--8~----------10~----------12~----------12~--| 
Db|---------------------------------------------|

Gb|------------------------------------------------------------------|
Db|------------------------------------------------------------------|
Ab|--8-8-8-8-8~---10-10-10-10-10~---12-12-12-12-12~----12-10---12-8--|
Db|------------------------------------------------------------------|


Chorus
Gb|-------------------------------------------|
Db|------------------------------------10h12--|
Ab|-8x----10-10x--12-12-12-12----10h12--------| x4
Db|-------------------------------------------|

Gb|-------------------------------------------|
Db|------------------------------------10h12--|
Ab|-8x----10-10x--12-12-12-12----10h12--------| x4
Db|-------------------------------------------|


Ending
Gb|------|
Db|------|
Ab|--8~--|
Db|------|
            
Submit corrections

comments powered by Disqus
↑ Back to top | Alpha Drive Bass for Waste. Lyrics for acoustic guitar and electric guitar. 1 Tablatures and chords are parodies/interpretations of the original songs. You may use it for private study, scholarship, research or language learning purposes only