» » »

Bother Me Tabs (ver.3)

Artists:  A B C D E F G H I J K L M N O P Q R S T U V W X Y Z # 

Bother Me Tabs (ver.3)

Alpha Drive
Rating:
0/5 (0 votes)

Hard to play? Try these video lessons and learn fast.
                Notation:					
p    - pull off					
h    - hammer on					
...  - palm mute                                 
(..) - fade out of palm mute
/    - slide down                               
\    - slide up				        
~    - hold note                                 
x    - pause
()   - harmonics

*Tunning: Db, Ab, Db, Gb, Bb, Eb*


Intro      (come in after guitar plays 1st riff)
eb|-----------------------------------------------------------------|
Bb|-----------------------------------------------------------------|
Gb|-----------------------------------------------------------------|
Db|--0-0-0---0-0-0---0-0-0---0-0-0---0-0-0---0-0-0---0-0-0---0-0-0--|
Ab|--0-0-0---0-0-0---0-0-0---0-0-0---0-0-0---0-0-0---0-0-0---0-0-0--|
Db|--0-0-0---0-0-0---0-0-0---0-0-0---0-0-0---0-0-0---0-0-0---0-0-0--|
pm   . . .   . . .   . . .   . . .   . . .   . . .   . . .   . . .

eb|-----------------------------------x--|
Bb|-----------------------------------x--|
Gb|------8------8------8------8------8x--|
Db|--0-0-x--0-0-x--0-0-x--0-0-x--0-0-xx--|
Ab|--0-0-6--0-0-6--0-0-6--0-0-6--0-0-6x--|
Db|--0-0----0-0----0-0----0-0----0-0--x--|
pm   . .    . .    . .    . .    . .    

Verse
eb|-------------------------------------------------------------|
Bb|-------------------------------------------------------------|
Gb|-------------------------------------------------------------|
Db|--0-0--0-0-0---0-0-0--0-0-0-0---0-0--0-0-0---0-0-0--0-0-0-0--|
Ab|--0-0--0-0-0---0-0-0--0-0-0-0---0-0--0-0-0---0-0-0--0-0-0-0--|
Db|--0-0--0-0-0---0-0-0--0-0-0-0---0-0--0-0-0---0-0-0--0-0-0-0--|
pm        . . .     .    . . . .        . . .     .    . . . .

eb|-------------------------------------------------------------|
Bb|-------------------------------------------------------------|
Gb|-------------------------------------------------------------|
Db|--1-1--3p1p0h1-1-1--3-1-0-3---1-1--3p1p0h1-1-1--3-1-0-3------|
Ab|--1-1--3p1p0h1-1-1--3-1-0-3---1-1--3p1p0h1-1-1--3-1-0-3------|
Db|--1-1--3p1p0h1-1-1--3-1-0-3---1-1--3p1p0h1-1-1--3-1-0-3------|

eb|-------------------------------------------------------------|
Bb|-------------------------------------------------------------|
Gb|-------------------------------------------------------------|
Db|--0-0--0-0-0---0-0-0--0-0-0-0---0-0--0-0-0---0-0-0--0-0-0-0--|
Ab|--0-0--0-0-0---0-0-0--0-0-0-0---0-0--0-0-0---0-0-0--0-0-0-0--|
Db|--0-0--0-0-0---0-0-0--0-0-0-0---0-0--0-0-0---0-0-0--0-0-0-0--|
pm        . . .     .    . . . .        . . .     .    . . . .

eb|-------------------------------------------------------------|
Bb|-------------------------------------------------------------|
Gb|-------------------------------------------------------------|
Db|--1-1--3p1p0h1-1-1--3-1-0-3---1-1--3p1p0h1-1-1--3-1-0-3------|
Ab|-------------------------------------------------------------|
Db|-------------------------------------------------------------|

eb|-------------------------------------------------------------|
Bb|-------------------------------------------------------------|
Gb|-------------------------------------------------------------|
Db|--0-0--0-0-0---0-0-0--0-0-0-0---0-0--0-0-0---0-0-0--0-0-0-0--|
Ab|--0-0--0-0-0---0-0-0--0-0-0-0---0-0--0-0-0---0-0-0--0-0-0-0--|
Db|--0-0--0-0-0---0-0-0--0-0-0-0---0-0--0-0-0---0-0-0--0-0-0-0--|
pm        . . .     .    . . . .        . . .     .    . . . .

eb|-------------------------------------------------------------|
Bb|-------------------------------------------------------------|
Gb|-------------------------------------------------------------|
Db|--1-1--3p1p0h1-1-1--3-1-0-3---1-1--3p1p0h1-1-1--3-1-0-3------|
Ab|--1-1--3p1p0h1-1-1--3-1-0-3---1-1--3p1p0h1-1-1--3-1-0-3------|
Db|--1-1--3p1p0h1-1-1--3-1-0-3---1-1--3p1p0h1-1-1--3-1-0-3------|

eb|-----------------------------------------------------------------|
Bb|-----------------------------------------------------------------|
Gb|-----------------------------------------------------------------|
Db|--0-0--0-0-0---0-0-0--0-0-0-0---0-0--0-0-0---0-0-0--0-0-0-0--0~--|
Ab|--0-0--0-0-0---0-0-0--0-0-0-0---0-0--0-0-0---0-0-0--0-0-0-0--0~--|
Db|--0-0--0-0-0---0-0-0--0-0-0-0---0-0--0-0-0---0-0-0--0-0-0-0--0~--|
pm        . . .     .    . . . .        . . .     .    . . . .

Chorus
eb|---------x-------------x-------------x---------------x--|
Bb|---------x-------------x-------------x---------------x--|
Gb|---------x-------------x-------------x---------------x--|
Db|--1-1-3-1x------1-1-3-1x------1-1-3-1x------1-1-3--0~x--|
Ab|--1-1-3-1x------1-1-3-1x------1-1-3-1x------1-1-3--0~x--|
Db|--1-1-3-1x------1-1-3-1x------1-1-3-1x------1-1-3--0~x--|

eb|---------x-------------x-------------x---------------x--|
Bb|---------x-------------x-------------x---------------x--|
Gb|---------x-------------x-------------x---------------x--|
Db|--1-1-3-1x------1-1-3-1x------1-1-3-1x------1-1-3--0~x--|
Ab|--1-1-3-1x------1-1-3-1x------1-1-3-1x------1-1-3--0~x--|
Db|--1-1-3-1x------1-1-3-1x------1-1-3-1x------1-1-3--0~x--|

Verse
eb|-------------------------------------------------------------|
Bb|-------------------------------------------------------------|
Gb|-------------------------------------------------------------|
Db|--0-0--0-0-0---0-0-0--0-0-0-0---0-0--0-0-0---0-0-0--0-0-0-0--|
Ab|--0-0--0-0-0---0-0-0--0-0-0-0---0-0--0-0-0---0-0-0--0-0-0-0--|
Db|--0-0--0-0-0---0-0-0--0-0-0-0---0-0--0-0-0---0-0-0--0-0-0-0--|
pm        . . .     .    . . . .        . . .     .    . . . .

eb|-------------------------------------------------------------|
Bb|-------------------------------------------------------------|
Gb|-------------------------------------------------------------|
Db|--1-1--3p1p0h1-1-1--3-1-0-3---1-1--3p1p0h1-1-1--3-1-0-3------|
Ab|--1-1--3p1p0h1-1-1--3-1-0-3---1-1--3p1p0h1-1-1--3-1-0-3------|
Db|--1-1--3p1p0h1-1-1--3-1-0-3---1-1--3p1p0h1-1-1--3-1-0-3------|

eb|-------------------------------------------------------------|
Bb|-------------------------------------------------------------|
Gb|-------------------------------------------------------------|
Db|--0-0--0-0-0---0-0-0--0-0-0-0---0-0--0-0-0---0-0-0--0-0-0-0--|
Ab|--0-0--0-0-0---0-0-0--0-0-0-0---0-0--0-0-0---0-0-0--0-0-0-0--|
Db|--0-0--0-0-0---0-0-0--0-0-0-0---0-0--0-0-0---0-0-0--0-0-0-0--|
pm        . . .     .    . . . .        . . .     .    . . . .

eb|-------------------------------------------------------------|
Bb|-------------------------------------------------------------|
Gb|-------------------------------------------------------------|
Db|--1-1--3p1p0h1-1-1--3-1-0-3---1-1--3p1p0h1-1-1--3-1-0-3------|
Ab|-------------------------------------------------------------|
Db|-------------------------------------------------------------|

eb|-------------------------------------------------------------|
Bb|-------------------------------------------------------------|
Gb|-------------------------------------------------------------|
Db|--0-0--0-0-0---0-0-0--0-0-0-0---0-0--0-0-0---0-0-0--0-0-0-0--|
Ab|--0-0--0-0-0---0-0-0--0-0-0-0---0-0--0-0-0---0-0-0--0-0-0-0--|
Db|--0-0--0-0-0---0-0-0--0-0-0-0---0-0--0-0-0---0-0-0--0-0-0-0--|
pm        . . .     .    . . . .        . . .     .    . . . .

eb|-------------------------------------------------------------|
Bb|-------------------------------------------------------------|
Gb|-------------------------------------------------------------|
Db|--1-1--3p1p0h1-1-1--3-1-0-3---1-1--3p1p0h1-1-1--3-1-0-3------|
Ab|--1-1--3p1p0h1-1-1--3-1-0-3---1-1--3p1p0h1-1-1--3-1-0-3------|
Db|--1-1--3p1p0h1-1-1--3-1-0-3---1-1--3p1p0h1-1-1--3-1-0-3------|

eb|-----------------------------------------------------------------|
Bb|-----------------------------------------------------------------|
Gb|-----------------------------------------------------------------|
Db|--0-0--0-0-0---0-0-0--0-0-0-0---0-0--0-0-0---0-0-0--0-0-0-0--0~--|
Ab|--0-0--0-0-0---0-0-0--0-0-0-0---0-0--0-0-0---0-0-0--0-0-0-0--0~--|
Db|--0-0--0-0-0---0-0-0--0-0-0-0---0-0--0-0-0---0-0-0--0-0-0-0--0~--|
pm        . . .     .    . . . .        . . .     .    . . . .

Chorus
eb|---------x-------------x-------------x---------------x--|
Bb|---------x-------------x-------------x---------------x--|
Gb|---------x-------------x-------------x---------------x--|
Db|--1-1-3-1x------1-1-3-1x------1-1-3-1x------1-1-3--0~x--|
Ab|--1-1-3-1x------1-1-3-1x------1-1-3-1x------1-1-3--0~x--|
Db|--1-1-3-1x------1-1-3-1x------1-1-3-1x------1-1-3--0~x--|

eb|---------x-------------x-------------x---------------x--|
Bb|---------x-------------x-------------x---------------x--|
Gb|---------x-------------x-------------x---------------x--|
Db|--1-1-3-1x------1-1-3-1x------1-1-3-1x------1-1-3--0~x--|
Ab|--1-1-3-1x------1-1-3-1x------1-1-3-1x------1-1-3--0~x--|
Db|--1-1-3-1x------1-1-3-1x------1-1-3-1x------1-1-3--0~x--|

Chorus
eb|---------x-------------x-------------x---------------x--|
Bb|---------x-------------x-------------x---------------x--|
Gb|---------x-------------x-------------x---------------x--|
Db|--1-1-3-1x------1-1-3-1x------1-1-3-1x------1-1-3--0~x--|
Ab|--1-1-3-1x------1-1-3-1x------1-1-3-1x------1-1-3--0~x--|
Db|--1-1-3-1x------1-1-3-1x------1-1-3-1x------1-1-3--0~x--|

eb|---------x-------------x-------------x---------------x--|
Bb|---------x-------------x-------------x---------------x--|
Gb|---------x-------------x-------------x---------------x--|
Db|--1-1-3-1x------1-1-3-1x------1-1-3-1x------1-1-3--0~x--|
Ab|--1-1-3-1x------1-1-3-1x------1-1-3-1x------1-1-3--0~x--|
Db|--1-1-3-1x------1-1-3-1x------1-1-3-1x------1-1-3--0~x--|

Breakdown
eb|-----------------------------------------------------------------|
Bb|-----------------------------------------------------------------|
Gb|-----------------------------------------------------------------|
Db|--0-0-0---0-0-0---0-0-0---0-0-0---0-0-0---0-0-0---0-0-0---0-0-0--|
Ab|--0-0-0---0-0-0---0-0-0---0-0-0---0-0-0---0-0-0---0-0-0---0-0-0--|
Db|--0-0-0---0-0-0---0-0-0---0-0-0---0-0-0---0-0-0---0-0-0---0-0-0--|
pm   . . .   . . .   . . .   . . .   . . .   . . .   . . .   . . .

eb|-----------------------------------------------------------------|
Bb|-----------------------------------------------------------------|
Gb|-----------------------------------------------------------------|
Db|--0-0-0---0-0-0---0-0-0---0-0-0---0-0-0---0-0-0---0-0-0---0-0-0--|
Ab|--0-0-0---0-0-0---0-0-0---0-0-0---0-0-0---0-0-0---0-0-0---0-0-0--|
Db|--0-0-0---0-0-0---0-0-0---0-0-0---0-0-0---0-0-0---0-0-0---0-0-0--|
pm   . . .   . . .   . . .   . . .   . . .   . . .   . . .   . . .

eb|-----------------------------------------------------------------|
Bb|-----------------------------------------------------------------|
Gb|-----------------------------------------------------------------|
Db|--0-0-1--0-0-1--0-0-1--0-0-1--0-0-1--0-0-1--0-0-1--0-0-1--0-0-1--|
Ab|--0-0-1--0-0-1--0-0-1--0-0-1--0-0-1--0-0-1--0-0-1--0-0-1--0-0-1--|
Db|--0-0-1--0-0-1--0-0-1--0-0-1--0-0-1--0-0-1--0-0-1--0-0-1--0-0-1--|
pm   . .    . .    . .    . .    . .    . .    . .    . .    . .

eb|-----------------------------------------------------------------|
Bb|-----------------------------------------------------------------|
Gb|-----------------------------------------------------------------|
Db|--0-0-1--0-0-1--0-0-1--0-0-1--0-0-1--0-0-1--0-0-1--0-0-1--0-0-1--|
Ab|--0-0-1--0-0-1--0-0-1--0-0-1--0-0-1--0-0-1--0-0-1--0-0-1--0-0-1--|
Db|--0-0-1--0-0-1--0-0-1--0-0-1--0-0-1--0-0-1--0-0-1--0-0-1--0-0-1--|
pm   . .    . .    . .    . .    . .    . .    . .    . .    . .

Chorus
eb|---------x-------------x-------------x---------------x--|
Bb|---------x-------------x-------------x---------------x--|
Gb|---------x-------------x-------------x---------------x--|
Db|--1-1-3-1x------1-1-3-1x------1-1-3-1x------1-1-3--0~x--|
Ab|--1-1-3-1x------1-1-3-1x------1-1-3-1x------1-1-3--0~x--|
Db|--1-1-3-1x------1-1-3-1x------1-1-3-1x------1-1-3--0~x--|

eb|---------x-------------x-------------x---------------x--|
Bb|---------x-------------x-------------x---------------x--|
Gb|---------x-------------x-------------x---------------x--|
Db|--1-1-3-1x------1-1-3-1x------1-1-3-1x------1-1-3--0~x--|
Ab|--1-1-3-1x------1-1-3-1x------1-1-3-1x------1-1-3--0~x--|
Db|--1-1-3-1x------1-1-3-1x------1-1-3-1x------1-1-3--0~x--|

Chorus
eb|---------x-------------x-------------x---------------x--|
Bb|---------x-------------x-------------x---------------x--|
Gb|---------x-------------x-------------x---------------x--|
Db|--1-1-3-1x------1-1-3-1x------1-1-3-1x------1-1-3--0~x--|
Ab|--1-1-3-1x------1-1-3-1x------1-1-3-1x------1-1-3--0~x--|
Db|--1-1-3-1x------1-1-3-1x------1-1-3-1x------1-1-3--0~x--|

eb|---------x-------------x-------------x---------------x--|
Bb|---------x-------------x-------------x---------------x--|
Gb|---------x-------------x-------------x---------------x--|
Db|--1-1-3-1x------1-1-3-1x------1-1-3-1x------1-1-3--0~x--|
Ab|--1-1-3-1x------1-1-3-1x------1-1-3-1x------1-1-3--0~x--|
Db|--1-1-3-1x------1-1-3-1x------1-1-3-1x------1-1-3--0~x--|
            
Hard to play? Try these video lessons and learn fast. | Correct




comments powered by Disqus
↑ Back to top | Tablatures and chords are parodies/interpretations of the original songs. You may use it for private study, scholarship, research or language learning purposes only