» » »

Alpha Drive, Bother Me Tabs (ver.2)

Artists:  A B C D E F G H I J K L M N O P Q R S T U V W X Y Z # 

Bother Me Tabs (ver.2)

Alpha Drive Tabs
 Rating:
4/5 (4 votes)
Bother Me lessons Tabs too difficult? Try these video lessons and learn fast
1
                Notation:					
p    - pull off					
h    - hammer on					
...  - palm mute                                 
(..) - fade out of palm mute
/    - slide down                               
\    - slide up				        
~    - hold note                                 
x    - pause
()   - harmonics

*Tunning: Db, Ab, Db, Gb, Bb, Eb*


Intro
eb|-----------------------------------------------------------------|
Bb|-----------------------------------------------------------------|
Gb|-----------------------------------------------------------------|
Db|--0-0-0---0-0-0---0-0-0---0-0-0---0-0-0---0-0-0---0-0-0---0-0-0--|
Ab|--0-0-0---0-0-0---0-0-0---0-0-0---0-0-0---0-0-0---0-0-0---0-0-0--|
Db|--0-0-0---0-0-0---0-0-0---0-0-0---0-0-0---0-0-0---0-0-0---0-0-0--|
pm   . . .   . . .   . . .   . . .   . . .   . . .   . . .   . . .

eb|-----------------------------------------------------------------|
Bb|-----------------------------------------------------------------|
Gb|------8------8------8------8------8------8------8------8------8--|
Db|--0-0-x--0-0-x--0-0-x--0-0-x--0-0-x--0-0-x--0-0-x--0-0-x--0-0-x--|
Ab|--0-0-6--0-0-6--0-0-6--0-0-6--0-0-6--0-0-6--0-0-6--0-0-6--0-0-6--|
Db|--0-0----0-0----0-0----0-0----0-0----0-0----0-0----0-0----0-0----|
pm   . .    . .    . .    . .    . .    . .    . .    . .    . .

eb|-----------------------------------------------------------------|
Bb|-----------------------------------------------------------------|
Gb|-----------------------------------------------------------------|
Db|--0-0-0---0-0-0---0-0-0---0-0-0---0-0-0---0-0-0---0-0-0---0-0-0--|
Ab|--0-0-0---0-0-0---0-0-0---0-0-0---0-0-0---0-0-0---0-0-0---0-0-0--|
Db|--0-0-0---0-0-0---0-0-0---0-0-0---0-0-0---0-0-0---0-0-0---0-0-0--|
pm   . . .   . . .   . . .   . . .   . . .   . . .   . . .   . . .

eb|-----------------------------------x--|
Bb|-----------------------------------x--|
Gb|------8------8------8------8------8x--|
Db|--0-0-x--0-0-x--0-0-x--0-0-x--0-0-xx--|
Ab|--0-0-6--0-0-6--0-0-6--0-0-6--0-0-6x--|
Db|--0-0----0-0----0-0----0-0----0-0--x--|
pm   . .    . .    . .    . .    . .    

Verse
eb|-------------------------------------------------------------|
Bb|-------------------------------------------------------------|
Gb|-------------------------------------------------------------|
Db|--0-0--0-0-0---0-0-0--0-0-0-0---0-0--0-0-0---0-0-0--0-0-0-0--|
Ab|--0-0--0-0-0---0-0-0--0-0-0-0---0-0--0-0-0---0-0-0--0-0-0-0--|
Db|--0-0--0-0-0---0-0-0--0-0-0-0---0-0--0-0-0---0-0-0--0-0-0-0--|
pm        . . .     .    . . . .        . . .     .    . . . .

eb|-------------------------------------------------------------|
Bb|-------------------------------------------------------------|
Gb|-------------------------------------------------------------|
Db|--1-1--3p1p0h1-1-1--3-1-0-3---1-1--3p1p0h1-1-1--3-1-0-3------|
Ab|--1-1--3p1p0h1-1-1--3-1-0-3---1-1--3p1p0h1-1-1--3-1-0-3------|
Db|--1-1--3p1p0h1-1-1--3-1-0-3---1-1--3p1p0h1-1-1--3-1-0-3------|

eb|-------------------------------------------------------------|
Bb|-------------------------------------------------------------|
Gb|-------------------------------------------------------------|
Db|--0-0--0-0-0---0-0-0--0-0-0-0---0-0--0-0-0---0-0-0--0-0-0-0--|
Ab|--0-0--0-0-0---0-0-0--0-0-0-0---0-0--0-0-0---0-0-0--0-0-0-0--|
Db|--0-0--0-0-0---0-0-0--0-0-0-0---0-0--0-0-0---0-0-0--0-0-0-0--|
pm        . . .     .    . . . .        . . .     .    . . . .

eb|-------------------------------------------------------------|
Bb|-------------------------------------------------------------|
Gb|-------------------------------------------------------------|
Db|--1-1--3p1p0h1-1-1--3-1-0-3---1-1--3p1p0h1-1-1--3-1-0-3------|
Ab|-------------------------------------------------------------|
Db|-------------------------------------------------------------|

eb|-------------------------------------------------------------|
Bb|-------------------------------------------------------------|
Gb|-------------------------------------------------------------|
Db|--0-0--0-0-0---0-0-0--0-0-0-0---0-0--0-0-0---0-0-0--0-0-0-0--|
Ab|--0-0--0-0-0---0-0-0--0-0-0-0---0-0--0-0-0---0-0-0--0-0-0-0--|
Db|--0-0--0-0-0---0-0-0--0-0-0-0---0-0--0-0-0---0-0-0--0-0-0-0--|
pm        . . .     .    . . . .        . . .     .    . . . .

eb|-------------------------------------------------------------|
Bb|-------------------------------------------------------------|
Gb|-------------------------------------------------------------|
Db|--1-1--3p1p0h1-1-1--3-1-0-3---1-1--3p1p0h1-1-1--3-1-0-3------|
Ab|--1-1--3p1p0h1-1-1--3-1-0-3---1-1--3p1p0h1-1-1--3-1-0-3------|
Db|--1-1--3p1p0h1-1-1--3-1-0-3---1-1--3p1p0h1-1-1--3-1-0-3------|

eb|-----------------------------------------------------------------|
Bb|-----------------------------------------------------------------|
Gb|-----------------------------------------------------------------|
Db|--0-0--0-0-0---0-0-0--0-0-0-0---0-0--0-0-0---0-0-0--0-0-0-0--0~--|
Ab|--0-0--0-0-0---0-0-0--0-0-0-0---0-0--0-0-0---0-0-0--0-0-0-0--0~--|
Db|--0-0--0-0-0---0-0-0--0-0-0-0---0-0--0-0-0---0-0-0--0-0-0-0--0~--|
pm        . . .     .    . . . .        . . .     .    . . . .

Chorus
eb|----------x-------------x-------------x----------------|
Bb|----------x-------------x-------------x----------------|
Gb|--8-8-10-8x-----8-8-10-8x-----8-8-10-8x-----8-8-10-7~--|
Db|--x-x--x-xx-----x-x--x-xx-----x-x--x-xx-----x-x--x-x~--|
Ab|--6-6--8-6x-----6-6--8-6x-----6-6--8-6x-----6-6--8-5~--|
Db|----------x-------------x-------------x----------------|

eb|----------x-------------x-------------x-------------x--|
Bb|----------x-------------x-------------x-------------x--|
Gb|--8-8-10-8x-----8-8-10-8x-----8-8-10-8x-----8-8-10-8x--|
Db|--x-x--x-xx-----x-x--x-xx-----x-x--x-xx-----x-x--x-xx--|
Ab|--6-6--8-6x-----6-6--8-6x-----6-6--8-6x-----6-6--8-6x--|
Db|----------x-------------x-------------x-------------x--|

Verse
eb|-------------------------------------------------------------|
Bb|-------------------------------------------------------------|
Gb|-------------------------------------------------------------|
Db|--0-0--0-0-0---0-0-0--0-0-0-0---0-0--0-0-0---0-0-0--0-0-0-0--|
Ab|--0-0--0-0-0---0-0-0--0-0-0-0---0-0--0-0-0---0-0-0--0-0-0-0--|
Db|--0-0--0-0-0---0-0-0--0-0-0-0---0-0--0-0-0---0-0-0--0-0-0-0--|
pm        . . .     .    . . . .        . . .     .    . . . .

eb|-------------------------------------------------------------|
Bb|-------------------------------------------------------------|
Gb|-------------------------------------------------------------|
Db|--1-1--3p1p0h1-1-1--3-1-0-3---1-1--3p1p0h1-1-1--3-1-0-3------|
Ab|--1-1--3p1p0h1-1-1--3-1-0-3---1-1--3p1p0h1-1-1--3-1-0-3------|
Db|--1-1--3p1p0h1-1-1--3-1-0-3---1-1--3p1p0h1-1-1--3-1-0-3------|

eb|-------------------------------------------------------------|
Bb|-------------------------------------------------------------|
Gb|-------------------------------------------------------------|
Db|--0-0--0-0-0---0-0-0--0-0-0-0---0-0--0-0-0---0-0-0--0-0-0-0--|
Ab|--0-0--0-0-0---0-0-0--0-0-0-0---0-0--0-0-0---0-0-0--0-0-0-0--|
Db|--0-0--0-0-0---0-0-0--0-0-0-0---0-0--0-0-0---0-0-0--0-0-0-0--|
pm        . . .     .    . . . .        . . .     .    . . . .

eb|-------------------------------------------------------------|
Bb|-------------------------------------------------------------|
Gb|-------------------------------------------------------------|
Db|--1-1--3p1p0h1-1-1--3-1-0-3---1-1--3p1p0h1-1-1--3-1-0-3------|
Ab|-------------------------------------------------------------|
Db|-------------------------------------------------------------|

eb|-------------------------------------------------------------|
Bb|-------------------------------------------------------------|
Gb|-------------------------------------------------------------|
Db|--0-0--0-0-0---0-0-0--0-0-0-0---0-0--0-0-0---0-0-0--0-0-0-0--|
Ab|--0-0--0-0-0---0-0-0--0-0-0-0---0-0--0-0-0---0-0-0--0-0-0-0--|
Db|--0-0--0-0-0---0-0-0--0-0-0-0---0-0--0-0-0---0-0-0--0-0-0-0--|
pm        . . .     .    . . . .        . . .     .    . . . .

eb|-------------------------------------------------------------|
Bb|-------------------------------------------------------------|
Gb|-------------------------------------------------------------|
Db|--1-1--3p1p0h1-1-1--3-1-0-3---1-1--3p1p0h1-1-1--3-1-0-3------|
Ab|--1-1--3p1p0h1-1-1--3-1-0-3---1-1--3p1p0h1-1-1--3-1-0-3------|
Db|--1-1--3p1p0h1-1-1--3-1-0-3---1-1--3p1p0h1-1-1--3-1-0-3------|

eb|-----------------------------------------------------------------|
Bb|-----------------------------------------------------------------|
Gb|-----------------------------------------------------------------|
Db|--0-0--0-0-0---0-0-0--0-0-0-0---0-0--0-0-0---0-0-0--0-0-0-0--0~--|
Ab|--0-0--0-0-0---0-0-0--0-0-0-0---0-0--0-0-0---0-0-0--0-0-0-0--0~--|
Db|--0-0--0-0-0---0-0-0--0-0-0-0---0-0--0-0-0---0-0-0--0-0-0-0--0~--|
pm        . . .     .    . . . .        . . .     .    . . . .

Chorus
eb|----------x-------------x-------------x----------------|
Bb|----------x-------------x-------------x----------------|
Gb|--8-8-10-8x-----8-8-10-8x-----8-8-10-8x-----8-8-10-7~--|
Db|--x-x--x-xx-----x-x--x-xx-----x-x--x-xx-----x-x--x-x~--|
Ab|--6-6--8-6x-----6-6--8-6x-----6-6--8-6x-----6-6--8-5~--|
Db|----------x-------------x-------------x----------------|

eb|----------x-------------x-------------x-------------x--|
Bb|----------x-------------x-------------x-------------x--|
Gb|--8-8-10-8x-----8-8-10-8x-----8-8-10-8x-----8-8-10-8x--|
Db|--x-x--x-xx-----x-x--x-xx-----x-x--x-xx-----x-x--x-xx--|
Ab|--6-6--8-6x-----6-6--8-6x-----6-6--8-6x-----6-6--8-6x--|
Db|----------x-------------x-------------x-------------x--|

eb|----------x-------------x-------------x----------------|
Bb|----------x-------------x-------------x----------------|
Gb|--8-8-10-8x-----8-8-10-8x-----8-8-10-8x-----8-8-10-7~--|
Db|--x-x--x-xx-----x-x--x-xx-----x-x--x-xx-----x-x--x-x~--|
Ab|--6-6--8-6x-----6-6--8-6x-----6-6--8-6x-----6-6--8-5~--|
Db|----------x-------------x-------------x----------------|

eb|----------x-------------x-------------x-------------x--|
Bb|----------x-------------x-------------x-------------x--|
Gb|--8-8-10-8x-----8-8-10-8x-----8-8-10-8x-----8-8-10-8x--|
Db|--x-x--x-xx-----x-x--x-xx-----x-x--x-xx-----x-x--x-xx--|
Ab|--6-6--8-6x-----6-6--8-6x-----6-6--8-6x-----6-6--8-6x--|
Db|----------x-------------x-------------x-------------x--|

Breakdown
eb|-----------------------------------------------------------------|
Bb|-----------------------------------------------------------------|
Gb|-----------------------------------------------------------------|
Db|--0-0-0---0-0-0---0-0-0---0-0-0---0-0-0---0-0-0---0-0-0---0-0-0--|
Ab|--0-0-0---0-0-0---0-0-0---0-0-0---0-0-0---0-0-0---0-0-0---0-0-0--|
Db|--0-0-0---0-0-0---0-0-0---0-0-0---0-0-0---0-0-0---0-0-0---0-0-0--|
pm   . . .   . . .   . . .   . . .   . . .   . . .   . . .   . . .

eb|-----------------------------------------------------------------|
Bb|-----------------------------------------------------------------|
Gb|-----------------------------------------------------------------|
Db|--0-0-0---0-0-0---0-0-0---0-0-0---0-0-0---0-0-0---0-0-0---0-0-0--|
Ab|--0-0-0---0-0-0---0-0-0---0-0-0---0-0-0---0-0-0---0-0-0---0-0-0--|
Db|--0-0-0---0-0-0---0-0-0---0-0-0---0-0-0---0-0-0---0-0-0---0-0-0--|
pm   . . .   . . .   . . .   . . .   . . .   . . .   . . .   . . .

eb|-----------------------------------------------------------------|
Bb|-----------------------------------------------------------------|
Gb|------8------8------8------8------8------8------8------8------8--|
Db|--0-0-x--0-0-x--0-0-x--0-0-x--0-0-x--0-0-x--0-0-x--0-0-x--0-0-x--|
Ab|--0-0-6--0-0-6--0-0-6--0-0-6--0-0-6--0-0-6--0-0-6--0-0-6--0-0-6--|
Db|--0-0----0-0----0-0----0-0----0-0----0-0----0-0----0-0----0-0----|
pm   . .    . .    . .    . .    . .    . .    . .    . .    . .

eb|-----------------------------------------------------------------|
Bb|-----------------------------------------------------------------|
Gb|------8------8------8------8------8------8------8------8------8--|
Db|--0-0-x--0-0-x--0-0-x--0-0-x--0-0-x--0-0-x--0-0-x--0-0-x--0-0-x--|
Ab|--0-0-6--0-0-6--0-0-6--0-0-6--0-0-6--0-0-6--0-0-6--0-0-6--0-0-6--|
Db|--0-0----0-0----0-0----0-0----0-0----0-0----0-0----0-0----0-0----|
pm   . .    . .    . .    . .    . .    . .    . .    . .    . .

Chorus
eb|----------x-------------x-------------x----------------|
Bb|----------x-------------x-------------x----------------|
Gb|--8-8-10-8x-----8-8-10-8x-----8-8-10-8x-----8-8-10-7~--|
Db|--x-x--x-xx-----x-x--x-xx-----x-x--x-xx-----x-x--x-x~--|
Ab|--6-6--8-6x-----6-6--8-6x-----6-6--8-6x-----6-6--8-5~--|
Db|----------x-------------x-------------x----------------|

eb|----------x-------------x-------------x-------------x--|
Bb|----------x-------------x-------------x-------------x--|
Gb|--8-8-10-8x-----8-8-10-8x-----8-8-10-8x-----8-8-10-8x--|
Db|--x-x--x-xx-----x-x--x-xx-----x-x--x-xx-----x-x--x-xx--|
Ab|--6-6--8-6x-----6-6--8-6x-----6-6--8-6x-----6-6--8-6x--|
Db|----------x-------------x-------------x-------------x--|

eb|----------x-------------x-------------x----------------|
Bb|----------x-------------x-------------x----------------|
Gb|--8-8-10-8x-----8-8-10-8x-----8-8-10-8x-----8-8-10-7~--|
Db|--x-x--x-xx-----x-x--x-xx-----x-x--x-xx-----x-x--x-x~--|
Ab|--6-6--8-6x-----6-6--8-6x-----6-6--8-6x-----6-6--8-5~--|
Db|----------x-------------x-------------x----------------|

eb|----------x-------------x-------------x-------------------|
Bb|----------x-------------x-------------x-------------------|
Gb|--8-8-10-8x-----8-8-10-8x-----8-8-10-8x-----8-8-10-8--7~--|
Db|--x-x--x-xx-----x-x--x-xx-----x-x--x-xx-----x-x--x-x--x~--|
Ab|--6-6--8-6x-----6-6--8-6x-----6-6--8-6x-----6-6--8-6--5~--|
Db|----------x-------------x-------------x-------------------|
            
Submit corrections

comments powered by Disqus
↑ Back to top | Alpha Drive Tabs for Bother Me. Lyrics for acoustic guitar and electric guitar. 1 Tablatures and chords are parodies/interpretations of the original songs. You may use it for private study, scholarship, research or language learning purposes only