>
 >
Birds Of Pray

Birds Of Pray Guitar Tabs

Almah - Birds Of Pray chords, tabs, tablatures, lyrics

Guitar lessons | Add/correct | Request | Top 50 tabs Artists:  A B C D E F G H I J K L M N O P Q R S T U V W X Y Z 0-9

Birds Of Pray Guitar Tabs – Almah

CD, Sheet music, Poster

Do you like Birds Of Pray? Share with your friends now
Tabs
Tom: F
                

(primeira guitarra - afinação E|Bb|Gb|Db|Ab|Db)

(riff)

(parte 1)
E|---------------------------------------------------|
B|---------------------------------------------------|
G|-7-6-7~-----9-7-9~-----10-9-10~--------------------|
D|--------7-8--------7-8-----------------------------|
A|---------------------------------------------------|
D|---------------------------------------------------|

(parte 2)
E|---------------13p10----12p10----------------------|
B|---------------------10----------------------------|
G|-------10p9----------------------------------------|
D|-11-12------11-------------------------------------|
A|---------------------------------------------------|
D|---------------------------------------------------|

(parte 3)
E|---------------------------------------------------|
B|---------------------------------------------------|
G|-7-6-7~-----9-7-9~-----10-9-10~--------------------|
D|--------7-8--------7-8-----------------------------|
A|---------------------------------------------------|
D|---------------------------------------------------|

(parte 4)
E|---------------13p10----15p10----------------------|
B|---------------------10----------------------------|
G|-------10p9----------------------------------------|
D|-11-12------11-------------------------------------|
A|---------------------------------------------------|
D|---------------------------------------------------|

(parte 5)
E|---------------------------------------------------|
B|---------------------------------------------------|
G|-7-6-7~-----9-7-9~-----12-10-12~-10-12-13b14~------|
D|--------7-8--------7-8-----------------------------|
A|---------------------------------------------------|
D|---------------------------------------------------|

(parte 6)
E|-10p5-------------------5-10p5---------------------|
B|------6---------------6----------------------------|
G|--------7-----------7------------------------------|
D|----------7-------7--------------------------------|
A|------------8-5h8----------------------------------|
D|---------------------------------------------------|

(parte 7)
E|-13p10---------------------------10-13p10----------|
B|-------10---------------------10-------------------|
G|----------10---------------10----------------------|
D|-------------12---------12-------------------------|
A|----------------12-8h12----------------------------|
D|---------------------------------------------------|

(parte 8)
E|-17p13----------------------------13-17p13-17~-----|
B|-------15----------------------15------------------|
G|----------14----------------14---------------------|
D|-------------15----------15------------------------|
A|----------------17-12h17---------------------------|
D|---------------------------------------------------|

(escala de-Dm-Harmônico)
E|---------------------------------------------------|
B|---------------------------------------------------|
G|-------------6-7-----------------------------------|
D|-------5-7-8---------------------------------------|
A|-5-7-8---------------------------------------------|
D|---------------------------------------------------|

(segunda guitarra)

(ensinando terças)

(Marcelo)
E|---------------------------------------------------|
B|-------------------6-------------------------------|
G|-------------6-7-9---9-7-6-------------------------|
D|-------5-7-8---------------8-7-5-------------------|
A|-5-7-8---------------------------8-----------------|
D|---------------------------------------------------|

(Paulo)
E|---------------------------------------------------|
B|---------------------------------------------------|
G|-------------6-7-6---------------------------------|
D|-------5-7-8-------8-7-5---------------------------|
A|-5-7-8-------------------5-7-8---------------------|
D|---------------------------------------------------|

(riff 2)

(parte 1)
E|---------------------------------------------------|
B|---------------------------------------------------|
G|-10-9-10~-------12-10-12~-------14-12-14~----------|
D|----------11-12-----------11-12--------------------|
A|---------------------------------------------------|
D|---------------------------------------------------|

(parte 2)
E|----------------17p13----15-13---------------------|
B|----------------------15---------------------------|
G|-------14-12---------------------------------------|
D|-14-15-------15------------------------------------|
A|---------------------------------------------------|
E|---------------------------------------------------|

(parte 3)
E|---------------------------------------------------|
B|---------------------------------------------------|
G|-10-9-10~-------12-10-12~-------14-12-14~----------|
D|----------11-12-----------11-12--------------------|
A|---------------------------------------------------|
D|---------------------------------------------------|

(parte 4)
E|----------------17p13----18-13---------------------|
B|----------------------15---------------------------|
G|-------14-12---------------------------------------|
D|-14-15-------15------------------------------------|
A|---------------------------------------------------|
D|---------------------------------------------------|

(parte 5)
E|-----------------------------------------------------|
B|-----------------------------------------------------|
G|-10-9-10~-------12-10-12~-------15-14-15~-14-15-17b18|
D|----------11-12-----------11-12----------------------|
A|-----------------------------------------------------|
E|-----------------------------------------------------|

(parte 6)
E|-13p10---------------------------10-13p10----------|
B|-------10---------------------10-------------------|
G|----------10---------------10----------------------|
D|-------------12---------12-------------------------|
A|----------------12-8h12----------------------------|
D|---------------------------------------------------|

(parte 7)
E|-17p13----------------------------13-17p13---------|
B|-------15----------------------15------------------|
G|----------14----------------14---------------------|
A|-------------15----------15------------------------|
D|----------------17-12h17---------------------------|
D|---------------------------------------------------|

(parte 8)
E|-22p17----------------------------17-22p17-22~-----|
B|-------18----------------------18------------------|
G|----------19----------------19---------------------|
D|-------------19----------19------------------------|
A|----------------20-17h20---------------------------|
D|---------------------------------------------------|





Comments


Popular Almah tabs & chords
All I Am Chords
Almah Chords
Breathe Chords
Primitive Chaos Chords
Shade Of My Soul Chords
All I Am Ukulele
Almah Ukulele
Breathe Ukulele
Primitive Chaos Ukulele
Shade Of My Soul Ukulele


Song lyrics



↑ Back to top | Tablatures and chords are parodies/interpretations of the original songs. You may use it for private study, scholarship, research or language learning purposes only
© 2014 AZChords.com Contact us | Privacy policy | DMCA | Add/correct tabs | Request tabs | Top 50 tabs