» » »

Allstar Weekend, Dance Forever Bass tabs (ver.1)

Artists:  A B C D E F G H I J K L M N O P Q R S T U V W X Y Z # 

Dance Forever Bass tabs (ver.1)

Allstar Weekend Tabs
 Rating:
4/5 (4 votes)
Dance Forever lessons Tabs too difficult? Try these video lessons and learn fast
                Instrument: Bass
Tuning: Standard
Difficulty: Novice
Key Signature: D Major

Bass - Cameron Quiseng

Intro {0:04}
G|---------------------------------|
D|---------------------------------|
A|-5-5-5-5-5-5-7-9-----------------|
E|-----------------5-5-5-5-5-5-5-5-|
   1 & 2 & 3 & 4 & 1 & 2 & 3 & 4 &
					x2
G|---------------------------------|
D|---------------------------------|
A|---------------------------------|
E|-7-7-7-7-7-7-7-7-3-3-3-3-3-3-3-3-|
   1 & 2 & 3 & 4 & 1 & 2 & 3 & 4 &

G|---------------|
D|---------------|
A|-5\------------|
E|---------------|
   1 & 2 & 3 & 4

Verse {0:22}
 #Baby get up...
G|---------------------------------|
D|---------------------------------|
A|-5---5---5---5---5---5---5---5---|
E|---------------------------------|
         PM.....|        PM.....|
   1 & 2 & 3 & 4 & 1 & 2 & 3 & 4 &
					x2
G|---------------------------------|
D|---------------------------------|
A|---------------------------------|
E|-7---7---7---7-----2/3-3---3/5-5-|
         PM.....|        
   1 & 2 & 3 & 4 & 1 & 2 & 3 & 4 &

Pre-Chorus {0:37}
 #We won't, sleep...
G|---------------------------------|
D|---------------------------------|
A|-5---5---5---5-------------------|
E|-----------------5---5---5---5---|
         PM.....|        PM.....|
   1 & 2 & 3 & 4 & 1 & 2 & 3 & 4 &

G|---------------------------------|
D|---------------------------------|
A|---------------------------------|
E|-7---7---7---7-----2/3-3---3/5-5-|
         PM.....|        
   1 & 2 & 3 & 4 & 1 & 2 & 3 & 4 &

G|---------------------------------|
D|---------------------------------|
A|-5---5---5---5---5---5---5---5---|
E|---------------------------------|
         PM.....|        PM.....|
   1 & 2 & 3 & 4 & 1 & 2 & 3 & 4 &

G|---------------------------------|
D|---------------------------------|
A|---------------------------------|
E|-7---7---7---7-----2/3-3---3/5-5-|
         PM.....|        
   1 & 2 & 3 & 4 & 1 & 2 & 3 & 4 &

Chorus {0:52}
 #We set the stage...
G|---------------------------------|
D|---------------------------------|
A|-5-5-5-5-5-5-7-7-----------------|
E|-----------------5-5-5-5-5-5-5-5-|
   1 & 2 & 3 & 4 & 1 & 2 & 3 & 4 &
					x2
G|---------------------------------|
D|---------------------------------|
A|---------------------------------|
E|-7-7-7-7-7-7-5-5-3-3-3-3-3-3-3-3-|
   1 & 2 & 3 & 4 & 1 & 2 & 3 & 4 &

Break {1:08}
G|---------------------------------|
D|---------------------------------|
A|-5-5-5-5-5-5-5-7-----------------|
E|-----------------5-5-5-5-5-5-5-5-|
   1 & 2 & 3 & 4 & 1 & 2 & 3 & 4 &
					
G|---------------------------------|
D|---------------------------------|
A|---------------------------------|
E|-7-7-7-7-7-7-5-5-3-3-3-3-3-3-3-3-|
   1 & 2 & 3 & 4 & 1 & 2 & 3 & 4 &

G|---------------------------------|
D|---------------------------------|
A|-5-5-5-5-5-5-7-7-----------------|
E|-----------------5-5-5-5-5-5-5-5-|
   1 & 2 & 3 & 4 & 1 & 2 & 3 & 4 &
					
G|---------------------------------|
D|---------------------------------|
A|---------------------------------|
E|-7-7-7-7-7-7-5-5-3-3-3-3-3-3-3-3-|
   1 & 2 & 3 & 4 & 1 & 2 & 3 & 4 &

G|---------------|
D|---------------|
A|-5\------------|
E|---------------|
   1 & 2 & 3 & 4

Verse {1:25}
 #We're crazy enough...
G|---------------------------------|
D|---------------------------------|
A|-5---5---5---5---5---5---5---5---|
E|---------------------------------|
         PM.....|        PM.....|
   1 & 2 & 3 & 4 & 1 & 2 & 3 & 4 &
					x2
G|---------------------------------|
D|---------------------------------|
A|---------------------------------|
E|-7---7---7---7-----2/3-3---3/5-5-|
         PM.....|        
   1 & 2 & 3 & 4 & 1 & 2 & 3 & 4 &

Pre-chorus {1:40}
 #We won't, sleep...
G|---------------------------------|
D|---------------------------------|
A|-5---5---5---5-------------------|
E|-----------------5---5---5---5---|
         PM.....|        PM.....|
   1 & 2 & 3 & 4 & 1 & 2 & 3 & 4 &

G|---------------------------------|
D|---------------------------------|
A|---------------------------------|
E|-7---7---7---7-----2/3-3---3/5-5-|
         PM.....|        
   1 & 2 & 3 & 4 & 1 & 2 & 3 & 4 &

G|---------------------------------|
D|---------------------------------|
A|-5---5---5---5---5---5---5---5---|
E|---------------------------------|
         PM.....|        PM.....|
   1 & 2 & 3 & 4 & 1 & 2 & 3 & 4 &

G|---------------------------------|
D|---------------------------------|
A|---------------------------------|
E|-7---7---7---7-----2/3-3---3/5-5-|
         PM.....|        
   1 & 2 & 3 & 4 & 1 & 2 & 3 & 4 &

G|---------------|
D|---------------|
A|-5\------------|
E|---------------|
   1 & 2 & 3 & 4

Chorus {1:57}
 #We set the stage...
G|---------------------------------|
D|---------------------------------|
A|-5-5-5-5-5-5-7-7-----------------|
E|-----------------5-5-5-5-5-5-5-5-|
   1 & 2 & 3 & 4 & 1 & 2 & 3 & 4 &
					x2
G|---------------------------------|
D|---------------------------------|
A|---------------------------------|
E|-7-7-7-7-7-7-5-5-3-3-3-3-3-3-3-3-|
   1 & 2 & 3 & 4 & 1 & 2 & 3 & 4 &

Break {2:14}
G|---------------------------------|
D|---------------------------------|
A|-5-5-5-5-5-5-5-7-----------------|
E|-----------------5-5-5-5-5-5-5-5-|
   1 & 2 & 3 & 4 & 1 & 2 & 3 & 4 &
					
G|---------------------------------|
D|---------------------------------|
A|---------------------------------|
E|-7-7-7-7-7-7-5-5-3-3-3-3-3-3-3-3-|
   1 & 2 & 3 & 4 & 1 & 2 & 3 & 4 &

G|---------------------------------|
D|---------------------------------|
A|-5-5-5-5-5-5-7-7-----------------|
E|-----------------5-5-5-5-5-5-5-5-|
   1 & 2 & 3 & 4 & 1 & 2 & 3 & 4 &
					
G|---------------------------------|
D|---------------------------------|
A|---------------------------------|
E|-7-7-7-7-7-7-5-5-3-3-3-3-3-3-3-3-|
   1 & 2 & 3 & 4 & 1 & 2 & 3 & 4 &

Bridge {2:28}
 #Turn around...
G|---------------------------------|
D|---------------------------------|
A|-5---5-----5-5-5-----------------|
E|-----------------5---5-----5-5-5/|
   1 & 2 & 3 & 4 & 1 & 2 & 3 & 4 &
					x2
G|---------------------------------|
D|---------------------------------|
A|---------------------------------|
E|-3---3-----3-3-3-3---3-----3-3-3/|
   1 & 2 & 3 & 4 & 1 & 2 & 3 & 4 &

REST (for who knows how long)

Chorus {2:59}
 #We set the stage...
G|---------------------------------|
D|---------------------------------|
A|-5-5-5-5-5-5-7-7-----------------|
E|-----------------5-5-5-5-5-5-5-5-|
   1 & 2 & 3 & 4 & 1 & 2 & 3 & 4 &
					x2
G|---------------------------------|
D|---------------------------------|
A|---------------------------------|
E|-7-7-7-7-7-7-5-5-3-3-3-3-3-3-3-3-|
   1 & 2 & 3 & 4 & 1 & 2 & 3 & 4 &

Break {2:14}
G|---------------------------------|
D|---------------------------------|
A|-5-5-5-5-5-5-5-7-----------------|
E|-----------------5-5-5-5-5-5-5-5-|
   1 & 2 & 3 & 4 & 1 & 2 & 3 & 4 &
					
G|---------------------------------|
D|---------------------------------|
A|---------------------------------|
E|-7-7-7-7-7-7-5-5-3-3-3-3-3-3-3-3-|
   1 & 2 & 3 & 4 & 1 & 2 & 3 & 4 &

G|---------------------------------|
D|---------------------------------|
A|-5-5-5-5-5-5-7-7-----------------|
E|-----------------5-5-5-5-5-5-5-5-|
   1 & 2 & 3 & 4 & 1 & 2 & 3 & 4 &
					
G|---------------------------------|
D|---------------------------------|
A|---------------------------------|
E|-7-7-7-7-7-7-5-5-3-3-3-3-3-3-3-3-|
   1 & 2 & 3 & 4 & 1 & 2 & 3 & 4 &

G|---------------|
D|---------------|
A|-5-------------|
E|---------------|
   1 & 2 & 3 & 4

/	=	Slide Up (Clear or to note)
\	=	Slide Down (Clear or to note)
PM...|	=	Palm Muting
            
Submit corrections

comments powered by Disqus
↑ Back to top | Allstar Weekend Bass for Dance Forever. Lyrics for acoustic guitar and electric guitar. Tablatures and chords are parodies/interpretations of the original songs. You may use it for private study, scholarship, research or language learning purposes only