» » »

Blame It On September Tabs (ver.2)

Artists:  A B C D E F G H I J K L M N O P Q R S T U V W X Y Z # 

Blame It On September Tabs (ver.2)

Allstar Weekend
Rating:
0/5 (0 votes)

Hard to play? Try these video lessons and learn fast.
                (Intro)
im sorry if i only got the intro and verse down but i am going to be working on it for
the next week and try to get the exact chords they play! Thanks guys/girls and if you
have any comment or suggestions on new tabs or this one here is my email address: 
name of taber: Marc-Antoine Lalonde

Oh and the tuning for this song! both guitars are tuned to drop D

Intro
E|----000000----000000----|
B|----000000----000000----|
G|----888888----666666----|
D|----000000----000000----|
A|-9~~~~~~~~-7~~~~~~~~----|
D|-9~~~~~~~~-7~~~~~~~~----|

Verse:

E|----000000----000000----000000----000000-------------------|
B|----000000----000000----000000----000000-------------------|
G|----888888----666666----333333----666666-------------------|
D|----000000----000000----000000----000000-------------------|
A|-9~~~~~~~~-7~~~~~~~~-4~~~~~~~~-7~~~~~~~~-------------------|
D|-9~~~~~~~~-7~~~~~~~~-4~~~~~~~~-7~~~~~~~~-------------------|

Pre-Chorus:

Now the nights turn colder...

E|----000000----000000----|
B|----000000----000000----|
G|----666666----888888----| x3
D|----000000----000000----|
A|-7~~~~~~~~-9~~~~~~~~----|
D|-7~~~~~~~~-9~~~~~~~~----|

Than this little part just before the chorus:

Guitar 1 (Acoustic):

Now the summer starts to end...

E|----000000----000000------|
B|----000000----000000------|
G|----333333----666666------|
D|----000000----000000------|
A|-4~~~~~~~~-7~~~~~~~~------|
D|-4~~~~~~~~-7~~~~~~~~------|

Guitar 2 comes in with distortion at the end with:

... to end...

E|----------|
B|----------|
G|----------|
D|-666666---|
A|-666666---|
D|-666666---|

here is the chorus which i believe is the right chords,
let them ring out:
E|--------------------------|
B|--------------------------|
G|--------------------------|
D|-6----8----10----6666-8888|
A|-6----8----10----6666-8888|
D|-6----8----10----6666-8888|

E|-----------------------------|
B|-----------------------------|
G|-----------------------------|
D|-6----8----10101010--12121212|
A|-6----8----10101010--12121212|
D|-6----8----10101010--12121212|

E|------------|
B|------------|
G|------------|
D|-10--6--5--6|
A|-10--6--5--6|
D|-10--6--5--6|

Now back to the verse

than chorus

Bridge:

E|--------------------------------------------------------|
B|--------------------------------------------------------|
G|--------------------------------------------------------|
D|-888888888-66666666-88888888-1010101012121212-88888888~-|
A|-888888888-66666666-88888888-1010101012121212-88888888~-|
D|-888888888-66666666-88888888-1010101012121212-88888888~-|
            
Hard to play? Try these video lessons and learn fast. | Correct




comments powered by Disqus
↑ Back to top | Tablatures and chords are parodies/interpretations of the original songs. You may use it for private study, scholarship, research or language learning purposes only