» » »

A Different Side Of Me Tabs (ver.1)

Artists:  A B C D E F G H I J K L M N O P Q R S T U V W X Y Z # 

A Different Side Of Me Tabs (ver.1)

Allstar Weekend
Rating:
0/5 (0 votes)

Hard to play? Try these video lessons and learn fast.
                               INTRO

                 E------------------|
                 B------------------|
                 G-7-7--------------|
                 D-7-7--7--5-5------| x2
                 A-5-5--7--5-5------|
                 E------5--3-3------|


              Verse same as the intro x4
              Pre chorus same as the intro x2



             Chorus

                 E--------------------------|
                 B--------------------------|
                 G-------------7777---------|
                 D-9999--5555--7777--7777---| X3
                 A-9999--5555--5555--7777---|
                 E-7777--3333--------5555---|

                  Than


                 E--------------|
                 B--------------|
                 G-9------------|
                 D-9X8-5----7---|
                 A-7---5-X4-7X4-|
                 E-----3----5---|


                Intro again x1

                verse 2 x4

                pre chorus

                chorus


                Bridge


                E---------------------|
                B---------------------|
                G-7-------------------|
                D-7X8-5----9---7------|
                A-5---5X8--9X8-7X8----|
                E-----3----7---5------|

                Than (still bridge)


                E------------------------|
                B------------------------|
                G------------------7-----|
                D-9---5---7---9----7X4---|
                A-9X8-5X8-7X8-9X4--5-----|
                E-7---3---5---7----------|


               Than-strum once(after bridge)


               E-----------------|
               B-----------------|
               G---------7-------|
               D-9---5---7---7---| x2
               A-9---5---5---7---|
               E-7---3-------5---|
            
Hard to play? Try these video lessons and learn fast. | Correct




comments powered by Disqus
↑ Back to top | Tablatures and chords are parodies/interpretations of the original songs. You may use it for private study, scholarship, research or language learning purposes only