>
 >
Holiday

Holiday Guitar Tabs

Allison Iraheta - Holiday chords, tabs, tablatures, lyrics

Guitar lessons | Add/correct | Request | Top 50 tabs Artists:  A B C D E F G H I J K L M N O P Q R S T U V W X Y Z 0-9

Holiday Guitar Tabs – Allison Iraheta

CD, Sheet music, Poster

Do you like Holiday? Share with your friends now
Tabs
Tuning: D,G,D,F,A,D (Drop C with low E tuned to D)



Rhythm guitar


Intro (clean)
D|-----------------------------------------------|
A|-----------------------------------------------|
F|-----------------------------------------------|
C|-66-9-6-69-6-69-6-6-69-11-1212-11-96-----------| x2 then repeat x2 w/ distortion
G|-66-9-6-69-6-69-6-6-69-11-1212-11-96--6-9-69/--|
D|-44-7-4-47-4-47-4-4-47-9--1010-9--74-----------|

Verse 1

-Rest-

Chorus

D|-----------------------|          D|---------------------|                        
A|-----------------------|          A|---------------------|
F|-----99----------------|          F|-9-9-9-9-11-11-11-11-|
C|-6-6-99-11-9--9-13-13/-| x3 then  C|-9-9-9-9-11-11-11-11-|
G|-6-6-77-11-9--9-13-13/-|          G|-7-7-7-7--9--9--9--9-| 
D|-4-4----9--7--7-11-11/-|          D|---------------------|
                                   

Refrain
D|----------------------------------------|
A|----------------------------------------|
F|---------------------6-77-6-------------|
C|-66-9-6-69-6-69-6-69--------9-6---------|
G|--------------------------------6-9-69--|
D|----------------------------------------|


Verse 2

-Rest Until 1:29- listen for exact rhythm

D|----------------------------------------|
A|----------------------------------------|
F|-66-68--98~-/12~-/13-8-6-8-9------------|
C|-----------------------------6-9-8-9-11-|
G|----------------------------------------|
D|----------------------------------------|

Repeat Chorus

Solo (Repeat Refrain x2)

Bridge - Intro x2

then

D|------------------------------------------------------------|
A|------------------------------------------------------------|
F|--------------------------9-99-99-99-9----------------------|
C|-6-66-66-66-66-66-66-66-6-9-99-99-99-9-11-11-11-11-11-------|
G|-6-66-66-66-66-66-66-66-6-7-77-77-77-7-11-11-11-11-11-------|
D|-4-44-44-44-44-44-44-44-4-7-77-77-77-7-99-99-99-99--9-------|
                                          (^^two 11s^^) 

D|------------------------------------------------------------------|
A|------------------------------------------------------------------|
F|--------------------------9-99-99-99-9-11-11-11-11-11-11-12121212-|
C|-6-66-66-66-66-66-66-66-6-9-99-99-99-9-11-11-11-11-11-11-12121212-|
G|-6-66-66-66-66-66-66-66-6-7-77-77-77-7-9--99-99-99-99-99-10101010-|
D|-4-44-44-44-44-44-44-44-4-7-77-77-77-7-9--99-99-99-99-99-10101010-|
                                          (^^two 11s^^)
Repeat chorus x2

Outro
Refrain x4

======================================================================

Lead Guitar

Intro (Refrain)
-Rest- until the band comes in at :15

|-------------------------------------------------------------|
|---------------------------------14-1515-14------------------|
|-1313-16-13-1316-13-1316-13-1316------------16-13------------|
|---------------------------------------------------1316-1316-| x2
|-------------------------------------------------------------|
|-------------------------------------------------------------|

Verse 1 (optional - slide when the chords change)

|---------------------------------------------------------------------------------|
|---------------------------------------------------------------------------------|
|-13-13-13-13-8-8-8-8-13-13-----11-11-11-11-13-13-13-13-8-8-8-8-13-13-----6-6-6-6-|
|-13-13-13-13-8-8-8-8-13-13-9-9-11-11-11-11-13-13-13-13-8-8-8-8-13-13-9-9-6-6-6-6-| x2
|-11-11-11-11-6-6-6-6-11-11-9-9-9--9--9--9--11-11-11-11-6-6-6-6-11-11-9-9-4-4-4-4-|
|---------------------------7-7---------------------------------------7-7---------|

Chorus

D|-----------------------|          D|---------------------|                        
A|-----------------------|          A|---------------------|
F|-----99----------------|          F|-9-9-9-9-11-11-11-11-|
C|-6-6-99-11-9--9-13-13/-| x3 then  C|-9-9-9-9-11-11-11-11-|
G|-6-6-77-11-9--9-13-13/-|          G|-7-7-7-7--9--9--9--9-| 
D|-4-4----9--7--7-11-11/-|          D|---------------------|

Intro (Refrain)

Verse 2

|---------------------------------------------------------------------------------|
|---------------------------------------------------------------------------------|
|-13-13-13-13-8-8-8-8-13-13-----11-11-11-11-13-13-13-13-8-8-8-8-13-13-----6-6-6-6-|
|-13-13-13-13-8-8-8-8-13-13-9-9-11-11-11-11-13-13-13-13-8-8-8-8-13-13-9-9-6-6-6-6-| x2
|-11-11-11-11-6-6-6-6-11-11-9-9-9--9--9--9--11-11-11-11-6-6-6-6-11-11-9-9-4-4-4-4-|
|---------------------------7-7---------------------------------------7-7---------|

Chorus

Solo

|---------------------------------------------------------|
|-1212-15-12-1215-12-1215-12-121215-15-15-13-12----1212b--|
|-----------------------------------------------13--------|
|---------------------------------------------------------|
|---------------------------------------------------------|
|---------------------------------------------------------|

|---------------------------------------------------------|
|-1616-19-16-1619-16-1619-16-161619-18-18-16-1414b--------|
|---------------------------------------------------------|
|---------------------------------------------------------|
|---------------------------------------------------------|
|---------------------------------------------------------|

Bridge
-Rest- until 2:25 

|-------------------------------------------------------------|
|---------------------------------14-1515-14------------------|
|-1313-16-13-1316-13-1316-13-1316------------16-13------------|
|---------------------------------------------------1316-1316-| 
|-------------------------------------------------------------|
|-------------------------------------------------------------|

|-------------------------------------------------------------|
|---------------------------------14-1515-14------------------|
|-1313-16-13-1316-13-1316-13-1316------------16-13~-/20(x10)--|
|-------------------------------------------------------------|
|-------------------------------------------------------------|
|-------------------------------------------------------------|

Repeat chorus x2

Outro
Repeat Intro (Refrain) x4





Comments


Popular Allison Iraheta tabs & chords
Just Like You Chords
No One Else Chords
Scars Chords
Scars 1 Chords
Still Breathing Chords
Trouble Is 1 Chords
You Don't Know Me Chords
Friday Ill Be Over You Ukulele
Trouble Is Ukulele
You Dont Know Me Ukulele


Song lyrics



↑ Back to top | Tablatures and chords are parodies/interpretations of the original songs. You may use it for private study, scholarship, research or language learning purposes only
© 2014 AZChords.com Contact us | Privacy policy | DMCA | Add/correct tabs | Request tabs | Top 50 tabs