>
 >
Friday Ill Be Over You

Friday Ill Be Over You Guitar Tabs

Allison Iraheta - Friday Ill Be Over You chords, tabs, tablatures, lyrics

Guitar lessons | Add/correct | Request | Top 50 tabs Artists:  A B C D E F G H I J K L M N O P Q R S T U V W X Y Z 0-9

Friday Ill Be Over You Guitar Tabs – Allison Iraheta

CD, Sheet music, Poster

Do you like Friday Ill Be Over You? Share with your friends now
ChordsTabsUkulele
Tuning: D,G,C,F,A,D
Yes, tune the low E to a D, then the rest in Drop C tuning.

My high E string popped when i was figuring this out by ear, so nothing i tabbed is on the high E.



Intro/Verse
e|-------------------|
B|-------------------|
G|-------------------|
D|---7-7-5-5-999-7---|
A|-------------------|
E|-------------------|

Pre Chorus 
e|-------------------------------------------|
B|-------------------------------------------|
G|-------------------------------------------|
D|---7~---5~---/9~---7~---7~---5~---/9~---7~-|
A|-------------------------------------------|
E|-------------------------------------------|

Pre Chorus (optional)
e|-------------------------------------------------------------------------|
B|----10-----10---10-----8-----8---8------12------12----12-----10----10--10|
G|---9-----9----9------7-----7---7-----11------11----11------9------9---9--|
D|-7-----7-----------5-----5---------9-------9-------------7------7--------|
A|-------------------------------------------------------------------------|
E|-------------------------------------------------------------------------|
                                   ^x2^

Chorus
e|--------------------------------------|
B|--------------------------------------|
G---------------------99999999-10101010-|
D|--77777777-55555555-99999999-10101010-| x2
A|--77777777-55555555-77777777-88888888-|
E|--55555555-33333333-------------------|

e|-------------------------------------------|
B|-------------------------------------------|
G|--11111111-12121212------99999999-11111111-|
D|--11111111-12121212------99999999-11111111-| x2
A|--88888888-10101010-(x8)-77777777-88888888-|
E|-------------------------------------------|
    (11s)  

Repeat Verse, Pre Chorus, and Chorus

Bridge
e|---------------------------------------------------------|
B|---------------------------------------------------------|
G|---------------------------------------------------------|
D|-77------------77------------77------------77------------|
A|---------------------------------------------------------|
E|----5-5-55-5-5----5-5-55-5-5----5-5-55-5-5----5-5-55-5-5-|

After Bridge (optional) 2:08 - 2:19
e|------------------------------------------------|
B|-------18------18----18------21-------21----21--|
G|----17------17----17------20-------20----20-----|
D|-15------15------------17-------17--------------|
A|------------------------------------------------|
E|------------------------------------------------|


e|-----------------------------------------------|
B|-------17------17----17------18------18----18--|
G|----16------16----16------17------17----17-----|
D|-14------14------------15------15--------------| x2
A|-----------------------------------------------|
E|-----------------------------------------------|

Solo
e|---------------------------------------------------------------------|
B|-17-17-1717-18-17-1515151515151515-1515-15-1515-17-15-13131313131313-|
G|---------------------------------------------------------------------|
D|-14-14-1414-15-14-1212121212121212-1212-12-1212-14-12-10101010101010-| x2
A|---------------------------------------------------------------------|
E|---------------------------------------------------------------------|

Repeat Chorus til end then end on

e|-------|
B|-------|
G|-------|
D|---7---|
A|---x---|
E|---5---|

Easy, fun song. You can do a lot of things with it if you experiemnt with the rhythms.

| /  slide up
| \  slide down
| h  hammer-on
| p  pull-off
| ~  vibrato
| +  harmonic
| x  Mute note
=======================================================================





Comments


Popular Allison Iraheta tabs & chords
Just Like You Chords
No One Else Chords
No One Else 1 Chords
Still Breathing 1 Chords
Trouble Is 1 Chords
You Don't Know Me 1 Chords
Dont Waste The Pretty Ukulele
Friday Ill Be Over You Ukulele
No One Else Ukulele
Pieces Ukulele


Song lyrics



↑ Back to top | Tablatures and chords are parodies/interpretations of the original songs. You may use it for private study, scholarship, research or language learning purposes only
© 2014 AZChords.com Contact us | Privacy policy | DMCA | Add/correct tabs | Request tabs | Top 50 tabs