>
 >
Closer To Habit

Closer To Habit Guitar Tabs

Allele - Closer To Habit chords, tabs, tablatures, lyrics

Guitar lessons | Add/correct | Request | Top 50 tabs Artists:  A B C D E F G H I J K L M N O P Q R S T U V W X Y Z 0-9

Closer To Habit Guitar Tabs – Allele

CD, Sheet music, Poster

Do you like Closer To Habit? Share with your friends now
Tabs

    Kell y  Haye s  or Lane Mave rick        - G ui t  ar  Ov e  rd  u  b                                                
C  :----------------------------------------|-----------------------------|----------------------|-----------------------|
G  :----------------------------------------|-----------------------------|----------------------|-----------------------|
Eb :----------------14-----------14---14-14-|12--12-12-15--14-14-14-------|---14-----14-----14---|12--12-12-15---14---12-|
Bb :--------14---14-------------------------|-----------------------------|14--------------------|-----------------------|
F  :12---12---------------------------------|---------------------------12|----------------------|-----------------------|
Bb :----------------------------------------|------------------------12---|----------------------|-----------------------|

    Kell y  Haye s  or Lane Mave rick        - G ui t  ar                                                                
C  :----------------------------------------|-----------------------------|----------------------|-----------------------|
G  :----------------------------------------|-----------------------------|----------------------|-----------------------|
Eb :----------------------------------------|-----------------------------|----------------------|-----------------------|
Bb :----------------------------------------|-----------------------------|----------------------|-----------------------|
F  :----------------------------------------|-----------------------------|----------------------|-----------------------|
Bb :----------------------------------------|-----------------------------|----------------------|-----------------------|

    Kell y  Haye s  or Lane Mave rick        - G ui t  ar                                                                
C  :----------------------------------------|-----------------------------|----------------------|-----------------------|
G  :----------------------------------------|-----------------------------|----------------------|-----------------------|
Eb :----------------------------------------|-----------------------------|----------------------|-----------------------|
Bb :----------------------------------------|-----------------------------|----------------------|-----------------------|
F  :----------------------------------------|-----------------------------|----------------------|-----------------------|
Bb :----------------------------------------|-----------------------------|----------------------|-----------------------|

============================================================================================================================================

                                                                                                                           
C  :--------------------|----------------------------|----------------------|-----------------------|----------------------|
G  :--------------------|----------------------------|----------------------|--------------------13-|----------------------|
Eb :h14-----14-----14---|12--12-12-14--14-14---------|---14-----14-----14---|12--12-12-15---14------|15-p14---14--14--14---|
Bb :--------------------|----------------------------|14--------------------|-----------------------|----------------------|
F  :--------------------|--------------------------12|----------------------|-----------------------|----------------------|
Bb :--------------------|-----------------------12---|----------------------|-----------------------|----------------------|

                                                                                                                           
C  :--------------------|----------------------------|----------------------|-----------------------|----------------------|
G  :--------------------|----------------------------|----------------------|-----------------------|----------------------|
Eb :--------------------|----------------------------|----------------------|-----------------------|----------------------|
Bb :--------------------|----------------------------|----------------------|-----------------------|----------------------|
F  :--------------------|----------------------------|----------------------|-----------------------|----------------------|
Bb :--------------------|----------------------------|----------------------|-----------------------|----------------------|

                                                                                                                           
C  :--------------------|----------------------------|----------------------|-----------------------|----------------------|
G  :--------------------|----------------------------|----------------------|-----------------------|----------------------|
Eb :--------------------|----------------------------|----------------------|-----------------------|----------------------|
Bb :--------------------|----------------------------|----------------------|-----------------------|----------------------|
F  :--------------------|----------------------------|----------------------|-----------------------|----------------------|
Bb :--------------------|----------------------------|----------------------|-----------------------|----------------------|

============================================================================================================================================

                                                                                                            
C  :12--12-12-h13-13-13---13--------|---------------------------------|-------------------------------------|
G  :--------------------------------|---------------------------------|-------------------------------------|
Eb :--------------------------------|------------14-----------14------|12-----12---12-15-------14-------12--|
Bb :--------------------------------|---------------------------------|-------------------------------------|
F  :--------------------------------|---------------------------------|-------------------------------------|
Bb :--------------------------------|---------------------------------|-------------------------------------|

                                                                                                            
C  :--------------------------------|---------------------------------|-------------------------------------|
G  :--------------------------------|---------------------------------|-------------------------------------|
Eb :--------------------------------|---------------------------------|-------------------------------------|
Bb :--------------------------------|7-7-7-7-7-7--*-------------------|-3-3-3--3-3--3--2-2-*----------------|
F  :--------------------------------|5-5-5-5-5-5--*-------------------|-1-1-1--1-1--1--0-0-*----------------|
Bb :--------------------5--5-5-5-5-5|---------------------------------|-------------------------------------|

                                                                                                            
C  :--------------------------------|---------------------------------|-------------------------------------|
G  :--------------------------------|---------------------------------|-------------------------------------|
Eb :--------------------------------|---------------------------------|-------------------------------------|
Bb :--------------------------------|-------------7-7-7-7-7-7--7-7-7-7|-*------------------2-2--2-2-2-2--2-2|
F  :--------------------------------|-------------5-5-5-5-5-5--5-5-5-5|-*------------------0-0--0-0-0-0--0-0|
Bb :--------------------------------|---------------------------------|-------------------------------------|

============================================================================================================================================

                                                                                                               
C  :-----------------------------------|-------------------------------------|---------------------------------|
G  :-----------------------------------|-------------------------------------|---------------------------------|
Eb :h14-----------14-----------14------|12-----12---12-14-----14-14----------|------------14-----------14------|
Bb :-----------------------------------|-------------------------------------|---------------------------------|
F  :-----------------------------------|-------------------------------------|---------------------------------|
Bb :-----------------------------------|-------------------------------------|---------------------------------|

                                                                                                               
C  :-----------------------------------|-------------------------------------|---------------------------------|
G  :-----------------------------------|-------------------------------------|---------------------------------|
Eb :-----------------------------------|-------------------------------------|---------------------------------|
Bb :-----------------------------------|-------------------------------------|7-7-7-7-7-7--*-------------------|
F  :--3-3-3-3-3-3--3-3-3-3-3-3--3-3-3-3|-*--------------5-5-5--5--5-5-5-5-5-5|5-5-5-5-5-5--*-------------------|
Bb :--3-3-3-3-3-3--3-3-3-3-3-3--3-3-3-3|-*--------------5-5-5--5--5-5-5-5-5-5|---------------------------------|

                                                                                                               
C  :-----------------------------------|-------------------------------------|---------------------------------|
G  :-----------------------------------|-------------------------------------|---------------------------------|
Eb :-----------------------------------|-------------------------------------|---------------------------------|
Bb :--*--------------------------------|-------------------------------------|-------------7-7-7-7-7-7--7-7-7-7|
F  :--*--------------------------------|-2-2-2--2-2--2--*--------------------|-------------5-5-5-5-5-5--5-5-5-5|
Bb :-----------------------------------|-2-2-2--2-2--2--*--------------------|---------------------------------|

============================================================================================================================================

                                                                                                                                  
C  :-------------------------------------|-------------------------------------|----------------|----------------|----------------|
G  :---------------------------------13--|-------------------------------------|----------------|----------------|----------------|
Eb :12-----12---12-15-------14-----------|15---p14-------14-----14-----14------|*---------------|----------------|----------------|
Bb :-------------------------------------|-------------------------------------|----------------|----------------|----------------|
F  :-------------------------------------|-------------------------------------|----------------|----------------|----------------|
Bb :-------------------------------------|-------------------------------------|----------------|----------------|----------------|

                                                                                                                                  
C  :-------------------------------------|-------------------------------------|----------------|----------------|----------------|
G  :-------------------------------------|-------------------------------------|----------------|----------------|----------------|
Eb :-------------------------2-2-2-2--2-2|-------------------------------------|----------------|7--7------------|3--3------------|
Bb :-3-3-3--3-3--3--2-2-2-2--2-2-2-2--2-2|-3-3---3-3-3-3--3-3-3--3-3-3--3-3-3-3|2--2-*5-5-*-5---|7--7--7--7--7-7-|3--3--3--3--3-3-|
F  :-1-1-1--1-1--1--0-0-0-0--0-0-0-0--0-0|-3-3---3-3-3-3--3-3-3--3-3-3--3-3-3-3|2--2-*5-5-*-5---|5--5--7--7--7-7-|1--1--3--3--3-3-|
Bb :-------------------------------------|-3-3---3-3-3-3--3-3-3--3-3-3--3-3-3-3|2--2-*5-5-*-5---|------7--7--7-7-|------3--3--3-3-|

                                                                                                                                  
C  :-------------------------------------|-------------------------------------|----------------|----------------|----------------|
G  :-------------------------------------|-------------------------------------|----------------|----------------|----------------|
Eb :-------------------------------------|-------------------------------------|----------------|7--7------------|3--3------------|
Bb :-*-----------------------------------|-3-3---3-3-3-3--3-3-3--3-3-3--3-3-3-3|2--2-*5-5-*-5---|7--7--7--7--7-7-|3--3--3--3--3-3-|
F  :-*-----------------------------------|-3-3---3-3-3-3--3-3-3--3-3-3--3-3-3-3|2--2-*5-5-*-5---|5--5--7--7--7-7-|1--1--3--3--3-3-|
Bb :-------------------------------------|-3-3---3-3-3-3--3-3-3--3-3-3--3-3-3-3|2--2-*5-5-*-5---|------7--7--7-7-|------3--3--3-3-|

============================================================================================================================================

                                                                                                                                     
C  :----------------|----------------|----------------|----------------|----------------|---------------------|----------------------|
G  :----------------|----------------|----------------|----------------|----------------|---------------------|----------------------|
Eb :----------------|----------------|----------------|----------------|----------------|---------------------|---14-----14-----14---|
Bb :----------------|----------------|----------------|----------------|----------------|---------------------|14--------------------|
F  :----------------|----------------|----------------|----------------|----------------|-------------------12|----------------------|
Bb :----------------|----------------|----------------|----------------|----------------|----------------12---|----------------------|

                                                                                                                                     
C  :----------------|----------------|----------------|----------------|----------------|---------------------|----------------------|
G  :----------------|----------------|----------------|----------------|----------------|---------------------|----------------------|
Eb :7--7------------|3--3------------|7--7------------|3--3------------|7--7------------|3--3-----------------|----------------------|
Bb :7--7--7--7--7-7-|3--3--3--3--3-3-|7--7--7--7--7-7-|3--3--3--3--3-3-|7--7--7--7--7-7-|3--3--3--3--3-3------|-*--------------------|
F  :5--5--7--7--7-7-|1--1--3--3--3-3-|5--5--7--7--7-7-|1--1--3--3--3-3-|5--5--7--7--7-7-|1--1--3--3--3-3------|-*--------------------|
Bb :------7--7--7-7-|------3--3--3-3-|------7--7--7-7-|------3--3--3-3-|------7--7--7-7-|------3--3--3-3------|-*--------------------|

                                                                                                                                     
C  :----------------|----------------|----------------|----------------|----------------|---------------------|----------------------|
G  :----------------|----------------|----------------|----------------|----------------|---------------------|----------------------|
Eb :7--7------------|3--3------------|7--7------------|3--3------------|7--7------------|3--3-----------------|----------------------|
Bb :7--7--7--7--7-7-|3--3--3--3--3-3-|7--7--7--7--7-7-|3--3--3--3--3-3-|7--7--7--7--7-7-|3--3--3--3--3-3------|-*--------------------|
F  :5--5--7--7--7-7-|1--1--3--3--3-3-|5--5--7--7--7-7-|1--1--3--3--3-3-|5--5--7--7--7-7-|1--1--3--3--3-3------|-*--------------------|
Bb :------7--7--7-7-|------3--3--3-3-|------7--7--7-7-|------3--3--3-3-|------7--7--7-7-|------3--3--3-3------|-*--------------------|

============================================================================================================================================

                                                                                                                            
C  :-----------------------|--------------------|----------------------------|----------------------|-----------------------|
G  :-----------------------|--------------------|----------------------------|----------------------|--------------------13-|
Eb :12--12-12-15---14---12-|h14-----14-----14---|12--12-12-14--14-14---------|---14-----14-----14---|12--12-12-15---14------|
Bb :-----------------------|--------------------|----------------------------|14--------------------|-----------------------|
F  :-----------------------|--------------------|--------------------------12|----------------------|-----------------------|
Bb :-----------------------|--------------------|-----------------------12---|----------------------|-----------------------|

                                                                                                                            
C  :-----------------------|--------------------|----------------------------|----------------------|-----------------------|
G  :-----------------------|--------------------|----------------------------|----------------------|-----------------------|
Eb :-----------------------|--------------------|----------------------------|----------------------|-----------------------|
Bb :-----------------------|--------------------|----------------------------|----------------------|-----------------------|
F  :-----------------------|--------------------|----------------------------|----------------------|-----------------------|
Bb :-----------------------|--------------------|----------------------------|----------------------|-----------------------|

                                                                                                                            
C  :-----------------------|--------------------|----------------------------|----------------------|-----------------------|
G  :-----------------------|--------------------|----------------------------|----------------------|-----------------------|
Eb :-----------------------|--------------------|----------------------------|----------------------|-----------------------|
Bb :-----------------------|--------------------|----------------------------|----------------------|-----------------------|
F  :-----------------------|--------------------|----------------------------|----------------------|-----------------------|
Bb :-----------------------|--------------------|----------------------------|----------------------|-----------------------|

============================================================================================================================================

                                                                                                                     
C  :----------------------|12--12-12-h13-13-13-13----|------------------|-----------------------|--------------------|
G  :----------------------|--------------------------|------------------|-----------------------|--------------------|
Eb :15-p14---14--14--14---|--------------------------|------14-----14---|12--12-12-15---14---12-|h14-----14-----14---|
Bb :----------------------|--------------------------|------------------|-----------------------|--------------------|
F  :----------------------|--------------------------|------------------|-----------------------|--------------------|
Bb :----------------------|--------------------------|------------------|-----------------------|--------------------|

                                                                                                                     
C  :----------------------|--------------------------|------------------|-----------------------|--------------------|
G  :----------------------|--------------------------|------------------|-----------------------|--------------------|
Eb :----------------------|--------------------------|------------------|-----------------------|--------------------|
Bb :----------------------|--------------------------|7--7-*-----7--7-*-|-3---3--*--3-3--*-3--*-|--------------------|
F  :----------------------|--------------------------|5--5-*-----5--5-*-|-1---1--*--1-1--*-1--*-|--3--3-*-----3--3-*-|
Bb :----------------------|--------------------------|------------------|-----------------------|--3--3-*-----3--3-*-|

                                                                                                                     
C  :----------------------|--------------------------|------------------|-----------------------|--------------------|
G  :----------------------|--------------------------|------------------|-----------------------|--------------------|
Eb :----------------------|--------------------------|------------------|-----------------------|--------------------|
Bb :----------------------|--------------------------|-------7-7-*------|-----------------------|--------------------|
F  :----------------------|--------------------------|-------5-5-*------|-----------------------|---------3-3-*------|
Bb :----------------------|--------------------------|------------------|-----------------------|---------3-3-*------|

============================================================================================================================================

                                                                                                                                 
C  :-------------------------|------------------|-------------------------------------|-------------------------|----------------|
G  :-------------------------|------------------|---------------------------------13--|-------------------------|----------------|
Eb :12--12-12-14---14-14-----|------14-----14---|12-----12---12-15-------14-----------|15-p14----14---14---14---|*---------------|
Bb :-------------------------|------------------|-------------------------------------|-------------------------|----------------|
F  :-------------------------|------------------|-------------------------------------|-------------------------|----------------|
Bb :-------------------------|------------------|-------------------------------------|-------------------------|----------------|

                                                                                                                                 
C  :-------------------------|------------------|-------------------------------------|-------------------------|----------------|
G  :-------------------------|------------------|-------------------------------------|-------------------------|----------------|
Eb :-------------------------|------------------|-------------------------2-2-2-2--2-2|-------------------------|----------------|
Bb :-------------------------|7--7-*-----7--7-*-|-3-3-3--3-3--3--2-2-2-2--2-2-2-2--2-2|-3-----3----------3--3---|2--2-*5-5-5-5-5-|
F  :-2---2--*--5-5-----*-5-*-|5--5-*-----5--5-*-|-1-1-1--1-1--1--0-0-0-0--0-0-0-0--0-0|-3-----3-*--------3--3-*-|2--2-*5-5-5-5-5-|
Bb :-2---2--*--5-5-----*-5-*-|------------------|-------------------------------------|-3-----3-*--------3--3-*-|2--2-*5-5-5-5-5-|

                                                                                                                                 
C  :-------------------------|------------------|-------------------------------------|-------------------------|----------------|
G  :-------------------------|------------------|-------------------------------------|-------------------------|----------------|
Eb :-------------------------|------------------|-------------------------2-2-2-2--2-2|-*-----------------------|----------------|
Bb :-------------------------|7--7-*------------|-3-3-3--3-3--3--2-2-2-2--2-2-2-2--2-2|-*---------3-3-----------|2--2-*5-5-5-5-5-|
F  :-------------------------|5--5-*------------|-1-1-1--1-1--1--0-0-0-0--0-0-0-0--0-0|-*---------3-3----*------|2--2-*5-5-5-5-5-|
Bb :-------------------------|------------------|-------------------------------------|-----------3-3----*------|2--2-*5-5-5-5-5-|

============================================================================================================================================

                                                                                                                                           
C  :----------------|----------------|----------------|----------------|----------------|----------------|----------------|----------------|
G  :----------------|----------------|----------------|----------------|----------------|----------------|----------------|----------------|
Eb :----------------|----------------|----------------|----------------|----------------|----------------|----------------|----------------|
Bb :----------------|----------------|----------------|----------------|----------------|----------------|----------------|----------------|
F  :----------------|----------------|----------------|----------------|----------------|----------------|----------------|----------------|
Bb :----------------|----------------|----------------|----------------|----------------|----------------|----------------|----------------|

                                                                                                                                           
C  :----------------|----------------|----------------|----------------|----------------|----------------|----------------|----------------|
G  :----------------|----------------|----------------|----------------|----------------|----------------|----------------|----------------|
Eb :7--7------------|3--3------------|7--7------------|3--3------------|7--7------------|3--3------------|7--7------------|3--3------------|
Bb :7--7--7--7--7-7-|3--3--3--3--3-3-|7--7--7--7--7-7-|3--3--3--3--3-3-|7--7--7--7--7-7-|3--3--3--3--3-3-|7--7--7--7--7-7-|3--3--3--3--3-3-|
F  :5--5--7--7--7-7-|1--1--3--3--3-3-|5--5--7--7--7-7-|1--1--3--3--3-3-|5--5--7--7--7-7-|1--1--3--3--3-3-|5--5--7--7--7-7-|1--1--3--3--3-3-|
Bb :------7--7--7-7-|------3--3--3-3-|------7--7--7-7-|------3--3--3-3-|------7--7--7-7-|------3--3--3-3-|------7--7--7-7-|------3--3--3-3-|

                                                                                                                                           
C  :----------------|----------------|----------------|----------------|----------------|----------------|----------------|----------------|
G  :----------------|----------------|----------------|----------------|----------------|----------------|----------------|----------------|
Eb :7--7------------|3--3------------|7--7------------|3--3------------|7--7------------|3--3------------|7--7------------|3--3------------|
Bb :7--7--7--7--7-7-|3--3--3--3--3-3-|7--7--7--7--7-7-|3--3--3--3--3-3-|7--7--7--7--7-7-|3--3--3--3--3-3-|7--7--7--7--7-7-|3--3--3--3--3-3-|
F  :5--5--7--7--7-7-|1--1--3--3--3-3-|5--5--7--7--7-7-|1--1--3--3--3-3-|5--5--7--7--7-7-|1--1--3--3--3-3-|5--5--7--7--7-7-|1--1--3--3--3-3-|
Bb :------7--7--7-7-|------3--3--3-3-|------7--7--7-7-|------3--3--3-3-|------7--7--7-7-|------3--3--3-3-|------7--7--7-7-|------3--3--3-3-|

============================================================================================================================================

                                                                                                                                           
C  :---------------------------------|---------------------------------|---------------------------------|---------------------------------|
G  :---------------------------------|---------------------------------|---------------------------------|---------------------------------|
Eb :---------------------------------|------------------------------14-|-*-------------------------------|------------------------------14-|
Bb :12-12-13-12-15-12-13-12-12-13-10-|12-12-13-12-15-12-13-12-12-13--*-|12-12-13-12-15-12-13-12-12-13-10-|12-12-13-12-15-12-13-12-12-13--*-|
F  :---------------------------------|---------------------------------|---------------------------------|---------------------------------|
Bb :---------------------------------|---------------------------------|---------------------------------|---------------------------------|

                                                                                                                                           
C  :---------------------------------|---------------------------------|---------------------------------|---------------------------------|
G  :---------------------------------|---------------------------------|---------------------------------|---------------------------------|
Eb :---------------------------------|---------------------------------|---------------------------------|---------------------------------|
Bb :----------*----------------------|---------------------------------|---------------------------------|---------------------------------|
F  :-----------------*---------------|---------------------------------|---------------------------------|---------------------------------|
Bb :-------------------------*-------|---------------------------------|---------------------------------|---------------------------------|

                                                                                                                                           
C  :---------------------------------|---------------------------------|---------------------------------|---------------------------------|
G  :---------------------------------|---------------------------------|---------------------------------|---------------------------------|
Eb :---------------------------------|---------------------------------|---------------------------------|---------------------------------|
Bb :----------*----------------------|---------------------------------|---------------------------------|---------------------------------|
F  :-----------------*---------------|---------------------------------|---------------------------------|---------------------------------|
Bb :-------------------------*-------|---------------------------------|---------------------------------|---------------------------------|

============================================================================================================================================

                                                                                                                                           
C  :---------------------------------|---------------------------------|---------------------------------|---------------------------------|
G  :---------------------------------|---------------------------------|---------------------------------|---------------------------------|
Eb :-*-------------------------------|------------------------------14-|-*-------------------------------|------------------------------14-|
Bb :12-12-13-12-15-12-13-12-12-13-10-|12-12-13-12-15-12-13-12-12-13--*-|12-12-13-12-15-12-13-12-12-13-10-|12-12-13-12-15-12-13-12-12-13--*-|
F  :---------------------------------|---------------------------------|---------------------------------|---------------------------------|
Bb :---------------------------------|---------------------------------|---------------------------------|---------------------------------|

                                                                                                                                           
C  :---------------------------------|---------------------------------|---------------------------------|---------------------------------|
G  :---------------------------------|---------------------------------|---------------------------------|---------------------------------|
Eb :---------------------------------|---------------------------------|---------------------------------|---------------------------------|
Bb :---------------------------------|---------------------------------|---------------------------------|---------------------------------|
F  :---------------------------------|---------------------------------|---------------------------------|---------------------------------|
Bb :---------------------------------|---------------------------------|---------------------------------|---------------------------------|

                                                                                                                                           
C  :---------------------------------|---------------------------------|---------------------------------|---------------------------------|
G  :---------------------------------|---------------------------------|---------------------------------|---------------------------------|
Eb :---------------------------------|---------------------------------|---------------------------------|---------------------------------|
Bb :---------------------------------|---------------------------------|---------------------------------|---------------------------------|
F  :---------------------------------|---------------------------------|---------------------------------|---------------------------------|
Bb :---------------------------------|---------------------------------|---------------------------------|---------------------------------|

============================================================================================================================================

                                                                                                                                     
C  :---------------------|-------------------------|---------------------|-------------------------|----------------|----------------|
G  :---------------------|-------------------------|---------------------|-------------------------|----------------|----------------|
Eb :----14---------------|----12-------------------|----14---------------|17--15--14---15-14-15-14-|--------*-------|----------------|
Bb :12------14---15-14---|15------15---14-14-15-14-|12------14---15-14---|-------------------------|----------------|----------------|
F  :---------------------|-------------------------|---------------------|-------------------------|----------------|----------------|
Bb :---------------------|-------------------------|---------------------|-------------------------|----------------|----------------|

                                                                                                                                     
C  :---------------------|-------------------------|---------------------|-------------------------|----------------|----------------|
G  :---------------------|-------------------------|---------------------|-------------------------|----------------|----------------|
Eb :-7-------------------|-------------------------|-7-------------------|-------------------------|7---------------|3---------------|
Bb :-7-------7-----------|-3-------2---------------|-7-------7-----------|-3-------5-------5-------|7-----7---------|3-----3---------|
F  :-5-------7-----------|-3-------2---------------|-5-------7-----------|-3-------5-------5-------|5-----7---------|1-----3---------|
Bb :---------7-----------|-3-------2---------------|---------7-----------|-3-------5-------5-------|------7---------|------3---------|

                                                                                                                                     
C  :---------------------|-------------------------|---------------------|-------------------------|----------------|----------------|
G  :---------------------|-------------------------|---------------------|-------------------------|----------------|----------------|
Eb :-7-------------------|-------------------------|-7-------------------|-------------------------|----------------|----------------|
Bb :-7-------7-----------|-3-------2---------------|-7-------7-----------|-3-------5-------5-------|*---------------|----------------|
F  :-5-------7-----------|-3-------2---------------|-5-------7-----------|-3-------5-------5-------|*---------------|----------------|
Bb :---------7-----------|-3-------2---------------|---------7-----------|-3-------5-------5-------|*---------------|----------------|

============================================================================================================================================

                                                                                                                                           
C  :----------------|----------------|----------------|----------------|----------------|----------------|----------------|----------------|
G  :----------------|----------------|----------------|----------------|----------------|----------------|----------------|----------------|
Eb :----------------|----------------|----------------|----------------|----------------|----------------|----------------|----------------|
Bb :----------------|----------------|----------------|----------------|----------------|----------------|----------------|----------------|
F  :----------------|----------------|----------------|----------------|----------------|----------------|----------------|----------------|
Bb :----------------|----------------|----------------|----------------|----------------|----------------|----------------|----------------|

                                                                                                                                           
C  :----------------|----------------|----------------|----------------|----------------|----------------|----------------|----------------|
G  :----------------|----------------|----------------|----------------|----------------|----------------|----------------|----------------|
Eb :7---------------|----------------|7--7------------|3--3------------|7--7------------|3--3------------|7--7------------|3--3------------|
Bb :7-----7---------|*---------------|7--7--7--7--7-7-|3--3--3--3--3-3-|7--7--7--7--7-7-|3--3--3--3--3-3-|7--7--7--7--7-7-|3--3--3--3--3-3-|
F  :5-----7---------|*---------------|5--5--7--7--7-7-|1--1--3--3--3-3-|5--5--7--7--7-7-|1--1--3--3--3-3-|5--5--7--7--7-7-|1--1--3--3--3-3-|
Bb :------7---------|*---------------|------7--7--7-7-|------3--3--3-3-|------7--7--7-7-|------3--3--3-3-|------7--7--7-7-|------3--3--3-3-|

                                                                                                                                           
C  :----------------|----------------|----------------|----------------|----------------|----------------|----------------|----------------|
G  :----------------|----------------|----------------|----------------|----------------|----------------|----------------|----------------|
Eb :----------------|----------------|7--7------------|3--3------------|7--7------------|3--3------------|7--7------------|3--3------------|
Bb :----------------|----------------|7--7--7--7--7-7-|3--3--3--3--3-3-|7--7--7--7--7-7-|3--3--3--3--3-3-|7--7--7--7--7-7-|3--3--3--3--3-3-|
F  :----------------|----------------|5--5--7--7--7-7-|1--1--3--3--3-3-|5--5--7--7--7-7-|1--1--3--3--3-3-|5--5--7--7--7-7-|1--1--3--3--3-3-|
Bb :----------------|----------------|------7--7--7-7-|------3--3--3-3-|------7--7--7-7-|------3--3--3-3-|------7--7--7-7-|------3--3--3-3-|

============================================================================================================================================

                                                                                                                                  
C  :----------------|----------------|----------------|----------------|----------------|----------------|------------------------|
G  :----------------|----------------|----------------|----------------|----------------|----------------|------------------------|
Eb :----------------|----------------|----------------|----------------|----------------|----------------|------------------------|
Bb :----------------|----------------|----------------|----------------|----------------|----------------|------------------------|
F  :----------------|----------------|----------------|----------------|----------------|----------------|------------------------|
Bb :----------------|----------------|----------------|----------------|----------------|----------------|------------------------|

                                                                                                                                  
C  :----------------|----------------|----------------|----------------|----------------|----------------|------------------------|
G  :----------------|----------------|----------------|----------------|----------------|----------------|------------------------|
Eb :7--7------------|3--3------------|7--7------------|3--3------------|7--7------------|3--3------------|------------------------|
Bb :7--7--7--7--7-7-|3--3--3--3--3-3-|7--7--7--7--7-7-|3--3--3--3--3-3-|7--7--7--7--7-7-|3--3--3--3--3-3-|0-0-0-3-0-3-0-0-0-0-0-3-|
F  :5--5--7--7--7-7-|1--1--3--3--3-3-|5--5--7--7--7-7-|1--1--3--3--3-3-|5--5--7--7--7-7-|1--1--3--3--3-3-|0-0-0-3-0-3-0-0-0-0-0-3-|
Bb :------7--7--7-7-|------3--3--3-3-|------7--7--7-7-|------3--3--3-3-|------7--7--7-7-|------3--3--3-3-|0-0-0-3-0-3-0-0-0-0-0-3-|

                                                                                                                                  
C  :----------------|----------------|----------------|----------------|----------------|----------------|------------------------|
G  :----------------|----------------|----------------|----------------|----------------|----------------|------------------------|
Eb :7--7------------|3--3------------|7--7------------|3--3------------|7--7------------|3--3------------|------------------------|
Bb :7--7--7--7--7-7-|3--3--3--3--3-3-|7--7--7--7--7-7-|3--3--3--3--3-3-|7--7--7--7--7-7-|3--3--3--3--3-3-|0-0-0-3-0-3-0-0-0-0-0-3-|
F  :5--5--7--7--7-7-|1--1--3--3--3-3-|5--5--7--7--7-7-|1--1--3--3--3-3-|5--5--7--7--7-7-|1--1--3--3--3-3-|0-0-0-3-0-3-0-0-0-0-0-3-|
Bb :------7--7--7-7-|------3--3--3-3-|------7--7--7-7-|------3--3--3-3-|------7--7--7-7-|------3--3--3-3-|0-0-0-3-0-3-0-0-0-0-0-3-|

============================================================================================================================================

                                                                                              
C  :------------------------|------------------------|-----------------------|----------------|
G  :------------------------|------------------------|-----------------------|----------------|
Eb :------------------------|------------------------|-----------------------|----------------|
Bb :------------------------|------------------------|-----------------------|----------------|
F  :------------------------|------------------------|-----------------------|----------------|
Bb :------------------------|------------------------|-----------------------|----------------|

                                                                                              
C  :------------------------|------------------------|-----------------------|----------------|
G  :------------------------|------------------------|-----------------------|----------------|
Eb :------------------------|------------------------|-----------------------|----------------|
Bb :0-0-0-3-0-3-0-0-0-0-0-3-|0-0-0-3-0-3-0-0-0-0-0-3-|0-0*0-0*0-0-0-0*0-0*0-0|*---------------|
F  :0-0-0-3-0-3-0-0-0-0-0-3-|0-0-0-3-0-3-0-0-0-0-0-3-|0-0*0-0*0-0-0-0*0-0*0-0|*---------------|
Bb :0-0-0-3-0-3-0-0-0-0-0-3-|0-0-0-3-0-3-0-0-0-0-0-3-|0-0*0-0*0-0-0-0*0-0*0-0|*---------------|

                                                                                              
C  :------------------------|------------------------|-----------------------|----------------|
G  :------------------------|------------------------|-----------------------|----------------|
Eb :------------------------|------------------------|-----------------------|----------------|
Bb :0-0-0-3-0-3-0-0-0-0-0-3-|0-0-0-3-0-3-0-0-0-0-0-3-|0-0*0-0*0-0-0-0*0-0*0-0|*---------------|
F  :0-0-0-3-0-3-0-0-0-0-0-3-|0-0-0-3-0-3-0-0-0-0-0-3-|0-0*0-0*0-0-0-0*0-0*0-0|*---------------|
Bb :0-0-0-3-0-3-0-0-0-0-0-3-|0-0-0-3-0-3-0-0-0-0-0-3-|0-0*0-0*0-0-0-0*0-0*0-0|*---------------|





Comments


Popular Allele tabs & chords
A Different Somone Bass Tabs
Cloaer To Habit Bass Tabs
Stitches Bass Tabs
A Different Somone Tabs
Immune Tabs


Song lyrics



↑ Back to top | Tablatures and chords are parodies/interpretations of the original songs. You may use it for private study, scholarship, research or language learning purposes only
© 2014 AZChords.com Contact us | Privacy policy | DMCA | Add/correct tabs | Request tabs | Top 50 tabs