>
 >
A Different Somone

A Different Somone Guitar Tabs

Allele - A Different Somone chords, tabs, tablatures, lyrics

Guitar lessons | Add/correct | Request | Top 50 tabs Artists:  A B C D E F G H I J K L M N O P Q R S T U V W X Y Z 0-9

A Different Somone Guitar Tabs – Allele

CD, Sheet music, Poster

Do you like A Different Somone? Share with your friends now
Bass TabsTabs
C  :----------------|----------------|
G  :----------------|----------------|
Eb :----------------|----------------|
Bb :5--5--*--5--5-5-|7--7--*--8--8-8-|
F  :5--5--*--5--5-5-|5--5--*--5--5-5-|
Bb :5--5--*--5--5-5-|5--5--*--5--5-5-|

                                     
C  :----------------|----------------|
G  :----------------|----------------|
Eb :----------------|----------------|
Bb :----------------|----------------|
F  :----------------|----------------|
Bb :----------------|----------------|

============================================================================

                                                                       
C  :----------------|----------------|----------------|----------------|
G  :----------------|----------------|----------------|----------------|
Eb :----------------|----------------|----------------|----------------|
Bb :1--1--*--1--1-1-|0--0--*--0--0-1-|5--5--*--5--5-5-|7--7--*--8--8-8-|
F  :1--1--*--1--1-1-|1--1--*--1--1-1-|5--5--*--5--5-5-|5--5--*--5--5-5-|
Bb :1--1--*--1--1-1-|0--0--*--0--0-1-|5--5--*--5--5-5-|5--5--*--5--5-5-|

                                                                       
C  :----------------|----------------|----------------|----------------|
G  :----------------|----------------|----------------|----------------|
Eb :----------------|----------------|----------------|----------------|
Bb :1--1--*--1--1-1-|0--0--*--0--0-1-|5--5--*--5--5-5-|7--7--*--8--8-8-|
F  :1--1--*--1--1-1-|1--1--*--1--1-1-|5--5--*--5--5-5-|5--5--*--5--5-5-|
Bb :1--1--*--1--1-1-|0--0--*--0--0-1-|5--5--*--5--5-5-|5--5--*--5--5-5-|

============================================================================

                                                                       
C  :----------------|----------------|----------------|----------------|
G  :----------------|----------------|----------------|----------------|
Eb :----------------|----------------|----------------|----------------|
Bb :1--1--*--1--1-1-|0--0--*--0--0-1-|5--5--*-x5--5-5-|7--7--*-x8--8-8-|
F  :1--1--*--1--1-1-|1--1--*--1--1-1-|5--5--*-x5--5-5-|5--5--*-x5--5-5-|
Bb :1--1--*--1--1-1-|0--0--*--0--0-1-|5--5--*-x5--5-5-|5--5--*-x5--5-5-|

                                                                       
C  :----------------|----------------|----------------|----------------|
G  :----------------|----------------|----------------|----------------|
Eb :----------------|----------------|----------------|----------------|
Bb :1--1--*--1--1-1-|0--0--*--0--0-1-|5--5--*-x5--5-5-|7--7--*-x8--8-8-|
F  :1--1--*--1--1-1-|1--1--*--1--1-1-|5--5--*-x5--5-5-|5--5--*-x5--5-5-|
Bb :1--1--*--1--1-1-|0--0--*--0--0-1-|5--5--*-x5--5-5-|5--5--*-x5--5-5-|

============================================================================

                                                                       
C  :----------------|----------------|----------------|----------------|
G  :----------------|----------------|----------------|----------------|
Eb :----------------|----------------|----------------|----------------|
Bb :1--1--*-x1--1-1-|1--1--1--1--1-1-|5--5--5--5--5-5-|7--7--8--8--8-8-|
F  :1--1--*-x1--1-1-|1--1--1--1--1-1-|5--5--5--5--5-5-|5--5--5--5--5-5-|
Bb :1--1--*-x1--1-1-|1--1--1--1--1-1-|5--5--5--5--5-5-|5--5--5--5--5-5-|

                                                                       
C  :----------------|----------------|----------------|----------------|
G  :----------------|----------------|----------------|----------------|
Eb :----------------|----------------|----------------|----------------|
Bb :1--1--*-x1--1-1-|1--1--1--1--1-1-|5--5--5--5--5-5-|7--7--8--8--8-8-|
F  :1--1--*-x1--1-1-|1--1--1--1--1-1-|5--5--5--5--5-5-|5--5--5--5--5-5-|
Bb :1--1--*-x1--1-1-|1--1--1--1--1-1-|5--5--5--5--5-5-|5--5--5--5--5-5-|

============================================================================

                                                                       
C  :----------------|----------------|----------------|----------------|
G  :----------------|----------------|----------------|----------------|
Eb :----------------|----------------|----------------|----------------|
Bb :1--1--1--1--1-1-|1--1--1--1--1-1-|5--5--5--5--5-5-|7--7--8--8--8-8-|
F  :1--1--1--1--1-1-|1--1--1--1--1-1-|5--5--5--5--5-5-|5--5--5--5--5-5-|
Bb :1--1--1--1--1-1-|1--1--1--1--1-1-|5--5--5--5--5-5-|5--5--5--5--5-5-|

                                                                       
C  :----------------|----------------|----------------|----------------|
G  :----------------|----------------|----------------|----------------|
Eb :----------------|----------------|----------------|----------------|
Bb :1--1--1--1--1-1-|1--1--1--1--1-1-|5--5--5--5--5-5-|7--7--8--8--8-8-|
F  :1--1--1--1--1-1-|1--1--1--1--1-1-|5--5--5--5--5-5-|5--5--5--5--5-5-|
Bb :1--1--1--1--1-1-|1--1--1--1--1-1-|5--5--5--5--5-5-|5--5--5--5--5-5-|

============================================================================

                    
C  :----------------|
G  :----------------|
Eb :----------------|
Bb :1-----------*---|
F  :1-----------*---|
Bb :1---------------|

                    
C  :----------------|
G  :----------------|
Eb :----------------|
Bb :1-----------*---|
F  :1-----------*---|
Bb :1---------------|

============================================================================

     The upper octave is played with an octave pedal in the studio version.
     Live, Lane plays the powerchord and the lowest octave together.                
C  :-18---17---15---18---17---15---18---17--|
G  :-11---10----8---11---10----8---11---10--|
Eb :----------------------------------------|
Bb :(-8)-(-7)-(-5)-(-8)-(-7)-(-5)-(-8)-(-7)-|
F  :----------------------------------------|
Bb :----------------------------------------|

                                            
C  :----------------------------------------|
G  :----------------------------------------|
Eb :----------------------------------------|
Bb :--5-------------------------------------|
F  :--5-------------------------------------|
Bb :--5-------------------------------------|

============================================================================

                                              
C  :-18---17---------18---17---------18---17--|
G  :-11---10----18---11---10----18---11---10--|
Eb :------------10--------------10------------|
Bb :(-8)-(-7)-------(-8)-(-7)-------(-8)-(-7)-|
F  :-----------(-8)------------(-8)-----------|
Bb :------------------------------------------|

                                              
C  :------------------------------------------|
G  :------------------------------------------|
Eb :------------------------------------------|
Bb :--5------5--------5------5--------5----5--|
F  :--5------5--------5------5--------5----5--|
Bb :--5------5--------5------5--------5----5--|

============================================================================

                                              
C  :-18---17---------18---17---------18---17--|
G  :-11---10---15----11---10----15---11---10--|
Eb :------------7----------------7------------|
Bb :(-8)-(-7)-------(-8)-(-7)-------(-8)-(-7)-|
F  :----------(-5)-------------(-5)-----------|
Bb :------------------------------------------|

                                              
C  :------------------------------------------|
G  :------------------------------------------|
Eb :------------------------------------------|
Bb :--1---------------1------1--------1----1--|
F  :--1---------------1------1--------1----1--|
Bb :--1---------1-1---1------1--------1----1--|

============================================================================

                                              
C  :-18---17---------18---17---------18---17--|
G  :-11---10---15----11---10----15---11---10--|
Eb :------------7----------------7------------|
Bb :(-8)-(-7)-------(-8)-(-7)-------(-8)-(-7)-|
F  :----------(-5)-------------(-5)-----------|
Bb :------------------------------------------|

                                              
C  :------------------------------------------|
G  :------------------------------------------|
Eb :------------------------------------------|
Bb :--1---------------1------1--------1----1--|
F  :--1---------------1------1--------1----1--|
Bb :--1---------1-1---1------1--------1----1--|

============================================================================

                                            
C  :-18---17---15---18---17---15---18---17--|
G  :-11---10----8---11---10----8---11---10--|
Eb :----------------------------------------|
Bb :(-8)-(-7)-(-5)-(-8)-(-7)-(-5)-(-8)-(-7)-|
F  :----------------------------------------|
Bb :----------------------------------------|

                                            
C  :----------------------------------------|
G  :----------------------------------------|
Eb :----------------------------------------|
Bb :--5-------------------------------------|
F  :--5-------------------------------------|
Bb :--5-------------------------------------|

============================================================================

                                              
C  :-18---17---------18---17---------18---17--|
G  :-11---10----18---11---10----18---11---10--|
Eb :------------10--------------10------------|
Bb :(-8)-(-7)-------(-8)-(-7)-------(-8)-(-7)-|
F  :-----------(-8)------------(-8)-----------|
Bb :------------------------------------------|

                                              
C  :------------------------------------------|
G  :------------------------------------------|
Eb :------------------------------------------|
Bb :--5------5--------5------5--------5----5--|
F  :--5------5--------5------5--------5----5--|
Bb :--5------5--------5------5--------5----5--|

============================================================================

                                              
C  :-18---17---------18---17---------18---17--|
G  :-11---10---15----11---10----15---11---10--|
Eb :------------7----------------7------------|
Bb :(-8)-(-7)-------(-8)-(-7)-------(-8)-(-7)-|
F  :----------(-5)-------------(-5)-----------|
Bb :------------------------------------------|

                                              
C  :------------------------------------------|
G  :------------------------------------------|
Eb :------------------------------------------|
Bb :--1---------------1------1--------1----1--|
F  :--1---------------1------1--------1----1--|
Bb :--1---------1-1---1------1--------1----1--|

============================================================================

                                                               
C  :-18---17---------18---17---------18---17--|----------------|
G  :-11---10---15----11---10----15---11---10--|----------------|
Eb :------------7----------------7------------|----------------|
Bb :(-8)-(-7)-------(-8)-(-7)-------(-8)-(-7)-|5--5--*--5--5-5-|
F  :----------(-5)-------------(-5)-----------|5--5--*--5--5-5-|
Bb :------------------------------------------|5--5--*--5--5-5-|

                                                               
C  :------------------------------------------|----------------|
G  :------------------------------------------|----------------|
Eb :------------------------------------------|----------------|
Bb :--1---------------1------1--------1----1--|5--5--*--5--5-5-|
F  :--1---------------1------1--------1----1--|5--5--*--5--5-5-|
Bb :--1---------1-1---1------1--------1----1--|5--5--*--5--5-5-|

============================================================================

                                                                       
C  :----------------|----------------|----------------|----------------|
G  :----------------|----------------|----------------|----------------|
Eb :----------------|----------------|----------------|----------------|
Bb :7--7--*--8--8-8-|1--1--*--1--1-1-|0--0--*--0--0-1-|5--5--*-x5--5-5-|
F  :5--5--*--5--5-5-|1--1--*--1--1-1-|1--1--*--1--1-1-|5--5--*-x5--5-5-|
Bb :5--5--*--5--5-5-|1--1--*--1--1-1-|0--0--*--0--0-1-|5--5--*-x5--5-5-|

                                                                       
C  :----------------|----------------|----------------|----------------|
G  :----------------|----------------|----------------|----------------|
Eb :----------------|----------------|----------------|----------------|
Bb :7--7--*--8--8-8-|1--1--*--1--1-1-|0--0--*--0--0-1-|5--5--*-x5--5-5-|
F  :5--5--*--5--5-5-|1--1--*--1--1-1-|1--1--*--1--1-1-|5--5--*-x5--5-5-|
Bb :5--5--*--5--5-5-|1--1--*--1--1-1-|0--0--*--0--0-1-|5--5--*-x5--5-5-|

============================================================================

                                                                       
C  :----------------|----------------|----------------|----------------|
G  :----------------|----------------|----------------|----------------|
Eb :----------------|----------------|----------------|----------------|
Bb :7--7--*-x8--8-8-|1--1--*-x1--1-1-|1--1--1--1--1-1-|5--5--5--5--5-5-|
F  :5--5--*-x5--5-5-|1--1--*-x1--1-1-|1--1--1--1--1-1-|5--5--5--5--5-5-|
Bb :5--5--*-x5--5-5-|1--1--*-x1--1-1-|1--1--1--1--1-1-|5--5--5--5--5-5-|

                                                                       
C  :----------------|----------------|----------------|----------------|
G  :----------------|----------------|----------------|----------------|
Eb :----------------|----------------|----------------|----------------|
Bb :7--7--*-x8--8-8-|1--1--*-x1--1-1-|1--1--1--1--1-1-|5--5--5--5--5-5-|
F  :5--5--*-x5--5-5-|1--1--*-x1--1-1-|1--1--1--1--1-1-|5--5--5--5--5-5-|
Bb :5--5--*-x5--5-5-|1--1--*-x1--1-1-|1--1--1--1--1-1-|5--5--5--5--5-5-|

============================================================================

                                                                       
C  :----------------|----------------|----------------|----------------|
G  :----------------|----------------|----------------|----------------|
Eb :----------------|----------------|----------------|----------------|
Bb :7--7--8--8--8-8-|1--1--1--1--1-1-|1--1--1--1--1-1-|5--5--5--5--5-5-|
F  :5--5--5--5--5-5-|1--1--1--1--1-1-|1--1--1--1--1-1-|5--5--5--5--5-5-|
Bb :5--5--5--5--5-5-|1--1--1--1--1-1-|1--1--1--1--1-1-|5--5--5--5--5-5-|

                                                                       
C  :----------------|----------------|----------------|----------------|
G  :----------------|----------------|----------------|----------------|
Eb :----------------|----------------|----------------|----------------|
Bb :7--7--8--8--8-8-|1--1--1--1--1-1-|1--1--1--1--1-1-|5--5--5--5--5-5-|
F  :5--5--5--5--5-5-|1--1--1--1--1-1-|1--1--1--1--1-1-|5--5--5--5--5-5-|
Bb :5--5--5--5--5-5-|1--1--1--1--1-1-|1--1--1--1--1-1-|5--5--5--5--5-5-|

============================================================================

                                                      
C  :----------------|----------------|----------------|
G  :----------------|----------------|----------------|
Eb :----------------|----------------|----------------|
Bb :7--7--8--8--8-8-|1--1--1--1--1-1-|1--1--1--1--1-1-|
F  :5--5--5--5--5-5-|1--1--1--1--1-1-|1--1--1--1--1-1-|
Bb :5--5--5--5--5-5-|1--1--1--1--1-1-|1--1--1--1--1-1-|

                                                      
C  :----------------|----------------|----------------|
G  :----------------|----------------|----------------|
Eb :----------------|----------------|----------------|
Bb :7--7--8--8--8-8-|1--1--1--1--1-1-|1--1--1--1--1-1-|
F  :5--5--5--5--5-5-|1--1--1--1--1-1-|1--1--1--1--1-1-|
Bb :5--5--5--5--5-5-|1--1--1--1--1-1-|1--1--1--1--1-1-|

============================================================================

     * *  C o  m m  e n  t s                
C  :-18---17---15---18---17---15---18---17--|
G  :-11---10----8---11---10----8---11---10--|
Eb :----------------------------------------|
Bb :(-8)-(-7)-(-5)-(-8)-(-7)-(-5)-(-8)-(-7)-|
F  :----------------------------------------|
Bb :----------------------------------------|

                                            
C  :----------------------------------------|
G  :----------------------------------------|
Eb :----------------------------------------|
Bb :--5-------------------------------------|
F  :--5-------------------------------------|
Bb :--5-------------------------------------|

============================================================================

                                              
C  :-18---17---------18---17---------18---17--|
G  :-11---10----18---11---10----18---11---10--|
Eb :------------10--------------10------------|
Bb :(-8)-(-7)-------(-8)-(-7)-------(-8)-(-7)-|
F  :-----------(-8)------------(-8)-----------|
Bb :------------------------------------------|

                                              
C  :------------------------------------------|
G  :------------------------------------------|
Eb :------------------------------------------|
Bb :--5------5--------5------5--------5----5--|
F  :--5------5--------5------5--------5----5--|
Bb :--5------5--------5------5--------5----5--|

============================================================================

                                              
C  :-18---17---------18---17---------18---17--|
G  :-11---10---15----11---10----15---11---10--|
Eb :------------7----------------7------------|
Bb :(-8)-(-7)-------(-8)-(-7)-------(-8)-(-7)-|
F  :----------(-5)-------------(-5)-----------|
Bb :------------------------------------------|

                                              
C  :------------------------------------------|
G  :------------------------------------------|
Eb :------------------------------------------|
Bb :--1---------------1------1--------1----1--|
F  :--1---------------1------1--------1----1--|
Bb :--1---------1-1---1------1--------1----1--|

============================================================================

                                              
C  :-18---17---------18---17---------18---17--|
G  :-11---10---15----11---10----15---11---10--|
Eb :------------7----------------7------------|
Bb :(-8)-(-7)-------(-8)-(-7)-------(-8)-(-7)-|
F  :----------(-5)-------------(-5)-----------|
Bb :------------------------------------------|

                                              
C  :------------------------------------------|
G  :------------------------------------------|
Eb :------------------------------------------|
Bb :--1---------------1------1--------1----1--|
F  :--1---------------1------1--------1----1--|
Bb :--1---------1-1---1------1--------1----1--|

============================================================================

                                            
C  :-18---17---15---18---17---15---18---17--|
G  :-11---10----8---11---10----8---11---10--|
Eb :----------------------------------------|
Bb :(-8)-(-7)-(-5)-(-8)-(-7)-(-5)-(-8)-(-7)-|
F  :----------------------------------------|
Bb :----------------------------------------|

                                            
C  :----------------------------------------|
G  :----------------------------------------|
Eb :----------------------------------------|
Bb :--5-------------------------------------|
F  :--5-------------------------------------|
Bb :--5-------------------------------------|

============================================================================

                                              
C  :-18---17---------18---17---------18---17--|
G  :-11---10----18---11---10----18---11---10--|
Eb :------------10--------------10------------|
Bb :(-8)-(-7)-------(-8)-(-7)-------(-8)-(-7)-|
F  :-----------(-8)------------(-8)-----------|
Bb :------------------------------------------|

                                              
C  :------------------------------------------|
G  :------------------------------------------|
Eb :------------------------------------------|
Bb :--5------5--------5------5--------5----5--|
F  :--5------5--------5------5--------5----5--|
Bb :--5------5--------5------5--------5----5--|

============================================================================

                                              
C  :-18---17---------18---17---------18---17--|
G  :-11---10---15----11---10----15---11---10--|
Eb :------------7----------------7------------|
Bb :(-8)-(-7)-------(-8)-(-7)-------(-8)-(-7)-|
F  :----------(-5)-------------(-5)-----------|
Bb :------------------------------------------|

                                              
C  :------------------------------------------|
G  :------------------------------------------|
Eb :------------------------------------------|
Bb :--1---------------1------1--------1----1--|
F  :--1---------------1------1--------1----1--|
Bb :--1---------1-1---1------1--------1----1--|

============================================================================

                                              
C  :-18---17---------18---17---------18---17--|
G  :-11---10---15----11---10----15---11---10--|
Eb :------------7----------------7------------|
Bb :(-8)-(-7)-------(-8)-(-7)-------(-8)-(-7)-|
F  :----------(-5)-------------(-5)-----------|
Bb :------------------------------------------|

                                              
C  :------------------------------------------|
G  :------------------------------------------|
Eb :------------------------------------------|
Bb :--1---------------1------1--------1----1--|
F  :--1---------------1------1--------1----1--|
Bb :--1---------1-1---1------1--------1----1--|

============================================================================

                                                                          
C  :-18------------*---|----------------|----------------|----------------|
G  :-11------------*---|----------------|----------------|----------------|
Eb :-------------------|----------------|----------------|----------------|
Bb :(-8)-----------*---|----------------|----------------|----------------|
F  :-------------------|----------------|----------------|----------------|
Bb :-------------------|----------------|----------------|----------------|

                                                                          
C  :-------------------|----------------|----------------|----------------|
G  :-------------------|----------------|----------------|----------------|
Eb :------------3------|---------3------|---------3------|---------3------|
Bb :--5---5--1--3--3---|5--5--1--3--3---|5--5--1--3--3---|5--5--1--3--3---|
F  :--5---5--1--1--3---|5--5--1--1--3---|5--5--1--1--3---|5--5--1--1--3---|
Bb :--5---5--1-----3---|5--5--1-----3---|5--5--1-----3---|5--5--1-----3---|

============================================================================

   (Phaser)                                                     
C  :----------------|----------------|--------------------------|
G  :----------------|----------------|--------------------------|
Eb :----------------|----------------|--------------------------|
Bb :7-----5---------|8-----5---8--7--|5-------------------------|
F  :----------------|----------------|---(5)--(5)--(5)--(5)-(5)-|
Bb :----------------|----------------|--------------------------|

                                                                
C  :----------------|----------------|--------------------------|
G  :----------------|----------------|--------------------------|
Eb :----------------|----------------|--------------------------|
Bb :1---------------|----------------|5-------------------------|
F  :1---------------|----------------|5-------------------------|
Bb :1---------------|----------------|5-------------------------|

============================================================================

                                                                
C  :--------------------------|----------------|----------------|
G  :--------------------------|----------------|----------------|
Eb :--------------------------|----------------|----------------|
Bb :--------------------------|7-----8---------|5--7--8-8--7--8-|
F  :5-h6-6-6-6-p5-5-5-5-h6-p5-|----------------|----------------|
Bb :--------------------------|----------------|----------------|

                                                                
C  :--------------------------|----------------|----------------|
G  :--------------------------|----------------|----------------|
Eb :--------------------------|----------------|----------------|
Bb :--------------------------|1---------------|----------------|
F  :--------------------------|1---------------|----------------|
Bb :--------------------------|1---------------|----------------|

============================================================================

                                                                       
C  :----------------|----------------|----------------|----------------|
G  :----------------|----------------|----------------|----------------|
Eb :----------------|----------------|----------------|----------------|
Bb :5--5--*--5--5-5-|7--7--*--8--8-8-|1--1--*--1--1-1-|0--0--*--0--0-1-|
F  :5--5--*--5--5-5-|5--5--*--5--5-5-|1--1--*--1--1-1-|1--1--*--1--1-1-|
Bb :5--5--*--5--5-5-|5--5--*--5--5-5-|1--1--*--1--1-1-|0--0--*--0--0-1-|

                                                                       
C  :----------------|----------------|----------------|----------------|
G  :----------------|----------------|----------------|----------------|
Eb :----------------|----------------|----------------|----------------|
Bb :5--5--*--5--5-5-|7--7--*--8--8-8-|1--1--*--1--1-1-|0--0--*--0--0-1-|
F  :5--5--*--5--5-5-|5--5--*--5--5-5-|1--1--*--1--1-1-|1--1--*--1--1-1-|
Bb :5--5--*--5--5-5-|5--5--*--5--5-5-|1--1--*--1--1-1-|0--0--*--0--0-1-|

============================================================================

                                                                       
C  :----------------|----------------|----------------|----------------|
G  :----------------|----------------|----------------|----------------|
Eb :----------------|----------------|----------------|----------------|
Bb :5--5--*--5--5-5-|7--7--*--8--8-8-|1--1--1--1--1-1-|1--1--1--1--1-1-|
F  :5--5--*--5--5-5-|5--5--*--5--5-5-|1--1--1--1--1-1-|1--1--1--1--1-1-|
Bb :5--5--*--5--5-5-|5--5--*--5--5-5-|1--1--1--1--1-1-|1--1--1--1--1-1-|

                                                                       
C  :----------------|----------------|----------------|----------------|
G  :----------------|----------------|----------------|----------------|
Eb :----------------|----------------|----------------|----------------|
Bb :5--5--*--5--5-5-|7--7--*--8--8-8-|1--1--1--1--1-1-|1--1--1--1--1-1-|
F  :5--5--*--5--5-5-|5--5--*--5--5-5-|1--1--1--1--1-1-|1--1--1--1--1-1-|
Bb :5--5--*--5--5-5-|5--5--*--5--5-5-|1--1--1--1--1-1-|1--1--1--1--1-1-|

============================================================================

     * *  C o  m m  e n  t s                
C  :-18---17---15---18---17---15---18---17--|
G  :-11---10----8---11---10----8---11---10--|
Eb :----------------------------------------|
Bb :(-8)-(-7)-(-5)-(-8)-(-7)-(-5)-(-8)-(-7)-|
F  :----------------------------------------|
Bb :----------------------------------------|

                                            
C  :----------------------------------------|
G  :----------------------------------------|
Eb :----------------------------------------|
Bb :--5-------------------------------------|
F  :--5-------------------------------------|
Bb :--5-------------------------------------|

============================================================================

                                              
C  :-18---17---------18---17---------18---17--|
G  :-11---10----18---11---10----18---11---10--|
Eb :------------10--------------10------------|
Bb :(-8)-(-7)-------(-8)-(-7)-------(-8)-(-7)-|
F  :-----------(-8)------------(-8)-----------|
Bb :------------------------------------------|

                                              
C  :------------------------------------------|
G  :------------------------------------------|
Eb :------------------------------------------|
Bb :--5------5--------5------5--------5----5--|
F  :--5------5--------5------5--------5----5--|
Bb :--5------5--------5------5--------5----5--|

============================================================================

                                              
C  :-18---17---------18---17---------18---17--|
G  :-11---10---15----11---10----15---11---10--|
Eb :------------7----------------7------------|
Bb :(-8)-(-7)-------(-8)-(-7)-------(-8)-(-7)-|
F  :----------(-5)-------------(-5)-----------|
Bb :------------------------------------------|

                                              
C  :------------------------------------------|
G  :------------------------------------------|
Eb :------------------------------------------|
Bb :--1---------------1------1--------1----1--|
F  :--1---------------1------1--------1----1--|
Bb :--1---------1-1---1------1--------1----1--|

============================================================================

                                              
C  :-18---17---------18---17---------18---17--|
G  :-11---10---15----11---10----15---11---10--|
Eb :------------7----------------7------------|
Bb :(-8)-(-7)-------(-8)-(-7)-------(-8)-(-7)-|
F  :----------(-5)-------------(-5)-----------|
Bb :------------------------------------------|

                                              
C  :------------------------------------------|
G  :------------------------------------------|
Eb :------------------------------------------|
Bb :--1---------------1------1--------1----1--|
F  :--1---------------1------1--------1----1--|
Bb :--1---------1-1---1------1--------1----1--|

============================================================================

                                            
C  :-18---17---15---18---17---15---18---17--|
G  :-11---10----8---11---10----8---11---10--|
Eb :----------------------------------------|
Bb :(-8)-(-7)-(-5)-(-8)-(-7)-(-5)-(-8)-(-7)-|
F  :----------------------------------------|
Bb :----------------------------------------|

                                            
C  :----------------------------------------|
G  :----------------------------------------|
Eb :----------------------------------------|
Bb :--5-------------------------------------|
F  :--5-------------------------------------|
Bb :--5-------------------------------------|

============================================================================

                                              
C  :-18---17---------18---17---------18---17--|
G  :-11---10----18---11---10----18---11---10--|
Eb :------------10--------------10------------|
Bb :(-8)-(-7)-------(-8)-(-7)-------(-8)-(-7)-|
F  :-----------(-8)------------(-8)-----------|
Bb :------------------------------------------|

                                              
C  :------------------------------------------|
G  :------------------------------------------|
Eb :------------------------------------------|
Bb :--5------5--------5------5--------5----5--|
F  :--5------5--------5------5--------5----5--|
Bb :--5------5--------5------5--------5----5--|

============================================================================

                                              
C  :-18---17---------18---17---------18---17--|
G  :-11---10---15----11---10----15---11---10--|
Eb :------------7----------------7------------|
Bb :(-8)-(-7)-------(-8)-(-7)-------(-8)-(-7)-|
F  :----------(-5)-------------(-5)-----------|
Bb :------------------------------------------|

                                              
C  :------------------------------------------|
G  :------------------------------------------|
Eb :------------------------------------------|
Bb :--1---------------1------1--------1----1--|
F  :--1---------------1------1--------1----1--|
Bb :--1---------1-1---1------1--------1----1--|

============================================================================

                                              
C  :-18---17---------18---17---------18---17--|
G  :-11---10---15----11---10----15---11---10--|
Eb :------------7----------------7------------|
Bb :(-8)-(-7)-------(-8)-(-7)-------(-8)-(-7)-|
F  :----------(-5)-------------(-5)-----------|
Bb :------------------------------------------|

                                              
C  :------------------------------------------|
G  :------------------------------------------|
Eb :------------------------------------------|
Bb :--1---------------1------1--------1----1--|
F  :--1---------------1------1--------1----1--|
Bb :--1---------1-1---1------1--------1----1--|

============================================================================

                                            
C  :-18---17---15---18---17---15---18---17--|
G  :-11---10----8---11---10----8---11---10--|
Eb :----------------------------------------|
Bb :(-8)-(-7)-(-5)-(-8)-(-7)-(-5)-(-8)-(-7)-|
F  :----------------------------------------|
Bb :----------------------------------------|

                                            
C  :----------------------------------------|
G  :----------------------------------------|
Eb :----------------------------------------|
Bb :--5-------------------------------------|
F  :--5-------------------------------------|
Bb :--5-------------------------------------|

============================================================================

                                            
C  :-18---17--------18---17--------18---17--|
G  :-11---10---18---11---10---18---11---10--|
Eb :-----------10-------------10------------|
Bb :(-8)-(-7)------(-8)-(-7)------(-8)-(-7)-|
F  :----------(-8)-----------(-8)-----------|
Bb :----------------------------------------|

                                            
C  :----------------------------------------|
G  :----------------------------------------|
Eb :----------------------------------------|
Bb :--7-------------------------------------|
F  :--5-------------------------------------|
Bb :--5-------------------------------------|

============================================================================

                                            
C  :-18---17--------18---17--------18---17--|
G  :-11---10---15---11---10---15---11---10--|
Eb :------------7--------------7------------|
Bb :(-8)-(-7)------(-8)-(-7)------(-8)-(-7)-|
F  :----------(-5)-----------(-5)-----------|
Bb :----------------------------------------|

                                            
C  :----------------------------------------|
G  :----------------------------------------|
Eb :----------------------------------------|
Bb :--8-------------------------------------|
F  :--8-------------------------------------|
Bb :--8-------------------------------------|

============================================================================

                                                             
C  :-18---17--------18---17--------18---17--|----------------|
G  :-11---10---15---11---10---15---11---10--|----------------|
Eb :------------7--------------7------------|---------3------|
Bb :(-8)-(-7)------(-8)-(-7)------(-8)-(-7)-|5--5--1--3--3---|
F  :----------(-5)-----------(-5)-----------|5--5--1--1--3---|
Bb :----------------------------------------|5--5--1-----3---|

                                                             
C  :----------------------------------------|----------------|
G  :----------------------------------------|----------------|
Eb :----------------------------------------|---------3------|
Bb :-10-------------------------------------|5--5--1--3--3---|
F  :-10-------------------------------------|5--5--1--1--3---|
Bb :-10-------------------------------------|5--5--1-----3---|

============================================================================

                                                                       
C  :----------------|----------------|----------------|----------------|
G  :----------------|----------------|----------------|----------------|
Eb :---------3------|---------3------|---------3------|----------------|
Bb :5--5--1--3--3---|5--5--1--3--3---|5--5--1--3--3---|1---------------|
F  :5--5--1--1--3---|5--5--1--1--3---|5--5--1--1--3---|1---------------|
Bb :5--5--1-----3---|5--5--1-----3---|5--5--1-----3---|1---------------|

                                                                       
C  :----------------|----------------|----------------|----------------|
G  :----------------|----------------|----------------|----------------|
Eb :---------3------|---------3------|---------3------|----------------|
Bb :5--5--1--3--3---|5--5--1--3--3---|5--5--1--3--3---|1---------------|
F  :5--5--1--1--3---|5--5--1--1--3---|5--5--1--1--3---|1---------------|
Bb :5--5--1-----3---|5--5--1-----3---|5--5--1-----3---|1---------------|

============================================================================

                                                                       
C  :----------------|----------------|----------------|----------------|
G  :----------------|----------------|----------------|----------------|
Eb :----------------|----------------|----------------|----------------|
Bb :----------------|----------------|----------------|----------------|
F  :----------------|----------------|----------------|----------------|
Bb :----------------|----------------|----------------|----------------|

                                                                       
C  :----------------|----------------|----------------|----------------|
G  :----------------|----------------|----------------|----------------|
Eb :----------------|----------------|----------------|----------------|
Bb :----------------|----------------|----------------|----------------|
F  :----------------|----------------|----------------|----------------|
Bb :----------------|----------------|----------------|----------------|

============================================================================

                    
C  :----------------|
G  :----------------|
Eb :----------------|
Bb :----------------|
F  :----------------|
Bb :----------------|

                    
C  :----------------|
G  :----------------|
Eb :----------------|
Bb :----------------|
F  :----------------|
Bb :----------------|





Comments


Popular Allele tabs & chords
A Different Somone Bass Tabs
Cloaer To Habit Bass Tabs
Stitches Bass Tabs
Closer To Habit Tabs
Immune Tabs


Song lyrics



↑ Back to top | Tablatures and chords are parodies/interpretations of the original songs. You may use it for private study, scholarship, research or language learning purposes only
© 2014 AZChords.com Contact us | Privacy policy | DMCA | Add/correct tabs | Request tabs | Top 50 tabs