>
 >
A Different Somone

A Different Somone Bass Tabs

Allele - A Different Somone chords, tabs, tablatures, lyrics

Guitar lessons | Add/correct | Request | Top 50 tabs Artists:  A B C D E F G H I J K L M N O P Q R S T U V W X Y Z 0-9

A Different Somone Bass Tabs – Allele

CD, Sheet music, Poster

Do you like A Different Somone? Share with your friends now
Bass TabsTabs
Eb :----------------|----------------|
Bb :----------------|----------------|
F  :----------------|----------------|
Bb :----------------|----------------|


Eb :----------------|----------------|----------------|----------------|
Bb :----------------|----------------|----------------|----------------|
F  :----------------|----------------|----------------|----------------|
Bb :1--1--*--1--1-1-|0--0--*--0--1-1-|5--5--*--5--5-5-|5--5--*--5--5-5-|


Eb :----------------|----------------|----------------|----------------|
Bb :----------------|----------------|----------------|----------------|
F  :----------------|----------------|----------------|----------------|
Bb :1--1--*--1--1-1-|0--0--*--0--1-1-|5--5--*-x5--5-5-|5--5--*-x5--5-5-|


Eb :----------------|----------------|----------------|----------------|
Bb :----------------|----------------|----------------|----------------|
F  :----------------|----------------|----------------|----------------|
Bb :1--1--*-x1--1-1-|1--1--1--1--1-1-|5--5--5--5--5-5-|5--5--5--5--5-5-|


Eb :----------------|----------------|----------------|----------------|
Bb :----------------|----------------|----------------|----------------|
F  :----------------|----------------|----------------|----------------|
Bb :1--1--1--1--1-1-|1--1--1--1--1-1-|5--5--5--5--5-5-|5--5--5--5--5-5-|


Eb :----------------|
Bb :----------------|
F  :----------------|
Bb :1-----------*---|


Eb :----------------|----------------|------------------|------------------|
Bb :----------------|----------------|------------------|------------------|
F  :----------------|----------------|------------------|------------------|
Bb :5---------------|5--5--5--5--5-5-|1---1-1-1--1--1-1-|1---1-1-1--1--1-1-|


Eb :----------------|----------------|------------------|------------------|
Bb :----------------|----------------|------------------|------------------|
F  :----------------|----------------|------------------|------------------|
Bb :5---------------|5--5--5--5--5-5-|1---1-1-1--1--1-1-|1---1-1-1--1--1-1-|


Eb :----------------|
Bb :----------------|
F  :----------------|
Bb :5--5--*--5--5-5-|


Eb :----------------|----------------|----------------|----------------|
Bb :----------------|----------------|----------------|----------------|
F  :----------------|----------------|----------------|----------------|
Bb :5--5--*--5--5-5-|1--1--*--1--1-1-|0--0--*--0--1-1-|5--5--*-x5--5-5-|


Eb :----------------|----------------|----------------|----------------|
Bb :----------------|----------------|----------------|----------------|
F  :----------------|----------------|----------------|----------------|
Bb :5--5--*-x5--5-5-|1--1--*-x1--1-1-|1--1--1--1--1-1-|5--5--5--5--5-5-|


Eb :----------------|----------------|----------------|----------------|
Bb :----------------|----------------|----------------|----------------|
F  :----------------|----------------|----------------|----------------|
Bb :5--5--5--5--5-5-|1--1--1--1--1-1-|1--1--1--1--1-1-|5--5--5--5--5-5-|


Eb :----------------|----------------|----------------|
Bb :----------------|----------------|----------------|
F  :----------------|----------------|----------------|
Bb :5--5--5--5--5-5-|1--1--1--1--1-1-|1--1--1--1--1-1-|


Eb :----------------|----------------|------------------|------------------|
Bb :----------------|----------------|------------------|------------------|
F  :----------------|----------------|------------------|------------------|
Bb :5---------------|5--5--5--5--5-5-|1---1-1-1--1--1-1-|1---1-1-1--1--1-1-|


Eb :----------------|----------------|------------------|------------------|
Bb :----------------|----------------|------------------|------------------|
F  :----------------|----------------|------------------|------------------|
Bb :5---------------|5--5--5--5--5-5-|1---1-1-1--1--1-1-|1---1-1-1--1--1-1-|


Eb :----------------|----------------|----------------|----------------|
Bb :----------------|----------------|----------------|----------------|
F  :---------1------|---------1------|---------1------|---------1------|
Bb :5--5--1-----3---|5--5--1-----3---|5--5--1-----3---|5--5--1-----3---|


Eb :----------------|----------------|----------------|----------------|
Bb :----------------|----------------|----------------|----------------|
F  :----------------|----------------|----------------|----------------|
Bb :1---------------|----------------|5---------------|----------------|


Eb :----------------|----------------|
Bb :----------------|----------------|
F  :----------------|----------------|
Bb :1---------------|----------------|


Eb :----------------|----------------|----------------|----------------|
Bb :----------------|----------------|----------------|----------------|
F  :----------------|----------------|----------------|----------------|
Bb :5--5--*--5--5-5-|5--5--*--5--5-5-|1--1--*--1--1-1-|0--0--*--0--1-1-|


Eb :----------------|----------------|----------------|----------------|
Bb :----------------|----------------|----------------|----------------|
F  :----------------|----------------|----------------|----------------|
Bb :5--5--*--5--5-5-|5--5--*--5--5-5-|1--1--1--1--1-1-|1--1--1--1--1-1-|


Eb :----------------|----------------|------------------|------------------|
Bb :----------------|----------------|------------------|------------------|
F  :----------------|----------------|------------------|------------------|
Bb :5---------------|5--5--5--5--5-5-|1---1-1-1--1--1-1-|1---1-1-1--1--1-1-|


Eb :----------------|----------------|------------------|------------------|
Bb :----------------|----------------|------------------|------------------|
F  :----------------|----------------|------------------|------------------|
Bb :5---------------|5--5--5--5--5-5-|1---1-1-1--1--1-1-|1---1-1-1--1--1-1-|


Eb :----------------|----------------|----------------|----------------|
Bb :----------------|----------------|----------------|----------------|
F  :----------------|----------------|1---------------|3---------------|
Bb :5---------------|5---------------|----------------|----------------|


Eb :----------------|----------------|----------------|----------------|
Bb :----------------|----------------|----------------|----------------|
F  :---------1------|---------1------|---------1------|---------1------|
Bb :5--5--1-----3---|5--5--1-----3---|5--5--1-----3---|5--5--1-----3---|


Eb :----------------|----------------|----------------|----------------|
Bb :----------------|----------------|----------------|----------------|
F  :----------------|----------------|----------------|----------------|
Bb :1---------------|----------------|----------------|----------------|


Eb :----------------|----------------|
Bb :----------------|----------------|
F  :----------------|----------------|
Bb :----------------|----------------|

These two tabs were automatically exported from the Tabit version of this song. To hear 
it is played, listen to the song, or the GuitarPro/TabIt powertab.





Comments


Popular Allele tabs & chords
Cloaer To Habit Bass Tabs
Stitches Bass Tabs
A Different Somone Tabs
Closer To Habit Tabs
Immune Tabs


Song lyrics



↑ Back to top | Tablatures and chords are parodies/interpretations of the original songs. You may use it for private study, scholarship, research or language learning purposes only
© 2014 AZChords.com Contact us | Privacy policy | DMCA | Add/correct tabs | Request tabs | Top 50 tabs