» » »

Alizee, Fifty Sixty Tabs (ver.1)

Artists:  A B C D E F G H I J K L M N O P Q R S T U V W X Y Z # 

Fifty Sixty Tabs (ver.1)

Alizee Tabs
 Rating:
4/5 (4 votes)
Fifty Sixty lessons Tabs too difficult? Try these video lessons and learn fast
1
                FIFTY SIXTY
ALIZEE - PSYCHEDELICES (2007)
JEAN FAUQUE/JEREMY CHATELAIN

INTRO (GUITAR 1)
e |----9--8---------9--8------------9--8----------------- ---------------------|
B |----------9--6----------9---------------9--6---7--6---- ---7--6-------------|
G |---------------------------6--------------------- ---6-6--------------------|
D |------------------------------------------------ ---------------------------|
A |------------------------------------------------ ---------------------------|
E |------------------------------------------------ ---------------------------|

GUITAR 2 (00:13)
e |------------------------------------------------ ---------------------------|
B |-----6---6-6-6-6-----4---4-4-4-4--------------------------------------------|
G |------------------------------------------------ ---------------------------|
D |------------------------------------------------ ---------------------------|
A |------------------------------------------------ ---------------------------|
E |------------------------------------------------ ---------------------------|


     VERSE
     P.M  P.M  P.M  P.M  P.M  P.M  P.M  P.M  P.M  P.M  P.M  P.M  P.M  P.M  P.M
e |------------------------------------------------ ---------------------------|
B |------------------------------------------------ ---------------------------|
G |------------------------------------------------ ---------------------------|
D |------------------------------------------------ ---------------------------|
A |----4-6-4-6-4-----------(16-TIMES)------------------------------------------|
E |------------------------------------------------ ---------------------------|


    GUITAR 2 (00:31)
e |------------------------------------------------ ---------------------------|
B |---------6-------7--6----9--6----7--6--------7--6---------------------------|
G |----6-----------------------------------6------- ---------------------------|
D |------------------------------------------------ ---------------------------|
A |------------------------------------------------ ---------------------------|
E |------------------------------------------------ ---------------------------|


     (00:45)
e |------------------------------------------------ -----------------------------|
B |------------------------------------------------ -----------------------------|
G |---3--3-3-----6--6-6----3--3-3----6--6-6----3--3-3---6--6-6-------------------|
D |----------------------------------------------------------------------------1-|
A |------------------------------------------------ -----------------------------|
E |------------------------------------------------ -----------------------------|

e |------------------------------------------------ ---------------------------|
B |------------------------------------------------ ---------------------------|
G |---6/8--8-8-8-8-8-8-8-8-8-8--8-8-8-8-8-8-8-8-8-8-8--------------------------|
D |------------------------------------------------ ---------------------------|
A |------------------------------------------------ ---------------------------|
E |------------------------------------------------ ---------------------------|

  CHORUS (FIFTY SIXTY...)
e |------------------------------------------------ ---------------------------|
B |------------------------------------------------ ---------------------------|
G |-------------------------------------------PLAY FOUR TIMES------------------|
D |--3-3-3--------------6-6-6---------------------- ---------------------------|
A |--1-1-1----4-4-4-----4-4-4---3-3-3-------------- ---------------------------|
E |-----------2-2-2-------------1-1-1-------------- ---------------------------|


e |------------------------------------------------ ---------------------------|
B |------------------------------------------------ ---------------------------|
G |------------------------------------------------ ---------------------------|
D |--8-8-8-8-8-8-8-8-8-8-----/----11-11-11-11-11-11-11-11-11-11----------------|
A |--6-6-6-6-6-6-6-6-6-6-----/-----9--9--9--9--9--9--9--9--9--9----------------|
E |------------------------------------------------ ---------------------------|

    (01:20) P.M  P.M  P.M  P.M  P.M  P.M  P.M  P.M  P.M  P.M  P.M P.M  P.M  P.M
e |------------------------------------------------ ---------------------------|
B |------------------------------------------------ ---------------------------|
G |------------------------------------------------ ---------------------------|
D |------------------------------------------------ ---------------------------|
A |----4-6-4-6-4-------------------- (16-TIMES)---- ---------------------------|
E |------------------------------------------------ ---------------------------|

(01:48)
e |------------------------------------------------ ---------------------------|
B |------------------------------------------------ ---------------------------|
G |---3--3-3----6--6-6---3--3-3---6--6-6----3--3-3---6--6-6--------------------|
D |------------------------------------------------ ---------------------------|
A |------------------------------------------------ ---------------------------|
E |------------------------------------------------ ---------------------------|

e |------------------------------------------------ ---------------------------|
B |------------------------------------------------ ---------------------------|
G |--6/8----8-8-8-8-8-8-8-8-8-8-8-8-8-8-8-8-8-8--8-8 8-8-----------------------|
D |------------------------------------------------ ---------------------------|
A |------------------------------------------------ ---------------------------|
E |------------------------------------------------ ---------------------------|

(02:02- FIFTY SIXTY...)
e |------------------------------------------------ ---------------------------|
B |------------------------------------------------ ---------------------------|
G |------------------------------------------------ ---------------------------|
D |----3-3-3-------------6-6-6------------------(PLAY 4 TIMES)-----------------|
U |----1-1-1----4-4-4----4-4-4----3-3-3------------ ---------------------------|
E |-------------2-2-2-------------1-1-1------------ ---------------------------|

e |------------------------------------------------ -----------------------------|
B |------------------------------------------------ -----------------------------|
G |------------------------------------------------ -----------------------------|
D |----8-8-8-8-8-8-8-8-8-8------/---11-11-11-11-11-11-11-11-11-11----------------|
A |----6-6-6-6-6-6-6-6-6-6------/----9--9--9--9--9--9--9--9 -9—-9----------------|
E |------------------------------------------------ -----------------------------|

(02:23 – LE FLOWER POWER...)
e |------------------------------------------------ ---------------------------|
B |------------------------------------------------ ---------------------------|
G |------------------------------------------------ ---------------------------|
D |------------------------------------------------(PLAY 8 TIMES)--------------|
A |--1-1-0-1------------4-4-1---------------------- ---------------------------|
E |-----------1-2--2-2---------4------------------- ---------------------------|


    (02:51 – FIFTY SIXTY..)
e |------------------------------------------------ ---------------------------|
B |------------------------------------------------ ---------------------------|
G |------------------------------------------------ (PLAY 4 TIMES)-------------|
D |---3-3-3-------------6-6-6---------------------- ---------------------------|
A |---1-1-1----4-4-4----4-4-4-----3-3-3------------ ---------------------------|
E |------------2-2-2--------------1-1-1------------ ---------------------------|


e |------------------------------------------------ ---------------------------|
B |------------------------------------------------ ---------------------------|
G |------------------------------------------------ ---------------------------|
D |----8-8-8-8-8-8-8-8-8-8-------/-/--------11-11-11-11-11-11-11-11-11-11------|
A |----6-6-6-6-6-6-6-6-6-6-------/-/---------9--9--9--9--9 -9--9--9--9—9-------|
E |------------------------------------------------ ---------------------------|


  (03:12 GUITAR 1 – FIFTY SIXTY....)
e |------------------------------------------------ ---------------------------|
B |------------------------------------------------ ---------------------------|
G |------------------------------------------------ -(PLAY 4 TIMES)------------|
D |----3-3-3-------------6-6-6--------------------- ---------------------------|
A |----1-1-1----4-4-4----4-4-4-----3-3-3----------- ---------------------------|
E |-------------2-2-2--------------1-1-1----------- ---------------------------|


  (03:12 GUITAR 2 – FIFTY SIXTY...)
e |------------------------------------------------ ---------------------------|
B |------------------------------------------------ ---------------------------|
G |------------------------------------------------ ---(PLAY 4 TIMES)----------|
D |----------3--1-3-1---------------------------------- -----------------------|
A |-1---0-1------------4------------------------------ ------------------------|
E |------------------------------------------------ ---------------------------|


  (03:26, GUITAR 1 & 2)
e |------------------------------------------------ -----------------------------|
B |------------------------------------------------ -----------------------------|
G |------------------------------------------------ -----------------------------|
D |--8-8-8-8-8-8-8-8-8-8---/---11-11-11-11-11-11-11-11-11-11----------6----------|
A |--6-6-6-6-6-6-6-6-6-6---/----9--9--9--9--9--9--9--9--9—9-----4----------------|
E |------------------------------------------------ -----------------------------|
                                                                     END
            
Submit corrections

comments powered by Disqus
↑ Back to top | Alizee Tabs for Fifty Sixty. Lyrics for acoustic guitar and electric guitar. 1 Tablatures and chords are parodies/interpretations of the original songs. You may use it for private study, scholarship, research or language learning purposes only