>
 >
Feeling Alive

Feeling Alive Guitar Tabs

Alistair Griffin - Feeling Alive chords, tabs, tablatures, lyrics

Guitar lessons | Add/correct | Request | Top 50 tabs Artists:  A B C D E F G H I J K L M N O P Q R S T U V W X Y Z 0-9

Feeling Alive Guitar Tabs – Alistair Griffin

CD, Sheet music, Poster

Do you like Feeling Alive? Share with your friends now
ChordsTabsUkulele
capo 5th fret

intro 
         G                 D                Em7               Cadd9
E-----------------|--------2h3------|-----------------|-----------------|
B----------3------|-------------3---|----------3------|----------3------|
G------0-------0--|------2----------|------0-------0--|------0-------0--|
D-----------------|--0--------------|-----------------|-----------------|
A-----------------|-----------------|--2--------------|--3--------------|
E--3--------------|-----------------|-----------------|-----------------|

v 1
         G                 D                 Em7             Cadd9
E-----------------|-----------------|-----------------|-----------------|
B----------3------|----------3------|----------3------|----------3------|
G------0-------0--|------2-------2--|------0-------0--|------0-------0--|
D-----------------|--0--------------|-----------------|-----------------|
A-----------------|-----------------|--2--------------|--3--------------|
E--3--------------|-----------------|-----------------|-----------------|

v 2
        D                   Cadd9
E-----2h3-----------|-----------------|
B-----------3---3---|----------3------|
G---2-----2---2---2-|------0-------0--|
D-0-----------------|-----------------|
A-------------------|--3--------------|
E-------------------|-----------------|

c 1 
         D                 G                 D               Cadd9
E-----------------|-----------------|-----------------|-----------------|
B----------3------|----------3------|----------3------|----------3------|
G------2-------2--|------0-------0--|------2-------2--|------0-------0--|
D--0--------------|-----------------|--0--------------|-----------------|
A-----------------|-----------------|-----------------|--3--------------|
E-----------------|--3--------------|-----------------|-----------------|

c 2 
         D                Em7                D               Cadd9
E-----------------|-----------------|-----------------|-----------------|
B----------3------|----------3------|----------3------|----------3------|
G------2-------2--|------0-------0--|------2-------2--|------0-------0--|
D--0--------------|-----------------|--0--------------|-----------------|
A-----------------|--2--------------|-----------------|--3--------------|
E-----------------|-----------------|-----------------|-----------------|
        D                Cadd9                D
E-----------------|---------3--------|-----------------|
B----------3------|-----3-------3----|----------3------|
G------2-------2--|---0---0---0---0--|------2----------|
D--0--------------|------------------|--0--------------|
A-----------------|-3----------------|-----------------|
E-----------------|------------------|-----------------|

intro riff

v. 1 x3
Tonight I feel like I died
She looked right into my eyes
And I know that she saw me staring at her
v. 1 & 2
Oh my mind started racing, the rest's just a blur

ch. 1 x2
So look me in the eye and say it's wrong
Tell me that these feelings wont go on
ch. 2
'Coz tonight, it's alright for this love to survive
Can't deny,
v. 1
I'm feeling alive


[G]Well there's [D]something she [Em7]just wont let [Cadd9]go
[G]What her [D]heart feels her [Em7]head just says [Cadd9]no
[G]And she [D]feels it, she [Em7]breathes it, it's [Cadd9]started to win
[G]And she [D]knows that she [Em7]wants it, it's [Cadd9]pulling her [D]in,  [Cadd9]

But [D]look me in the [G]eye and [D]say it's [Cadd9]wrong
[D]Tell me that these [G]feelings [D]wont go [Cadd9] [D]
'Coz [Em7]tonight, it's [D]alright for this [Cadd9]love to [D]survive
Can't [Cadd9]deny,[D] I'm feeling alii[Cadd9]ii[G]iive,  [D]
I'm feeling alii[Cadd9]ii[G]iive, [D]
Ali[Cadd9]-i-i-i-[G]i-ive,  [D]

[Em7] [D] [Cadd9] [D] [Cadd9] [D]


Look me in the eye and say it's wrong
Tell me that these feelings wont go on
Look me in the...

[G]eye and [D]say it's [Cadd9}wrong
[D]Tell me that these [G]feelings [D]wont go [Cadd9]on,  [D]
'Coz [Em7]tonight, it's [D]alright for this [Cadd9]love to [D]survive
Cant [Cadd9]deny, can't deny, [D] I'm feeling alive


I'm feeling alive
I'm feeling alive
[G]





Comments


Popular Alistair Griffin tabs & chords
Feeling Alive Chords
Mark Viduka Chords
The One Chords
What If 1 Chords
Youre The One Chords
Angel By My Side Tabs
Just Drive 1 Tabs
Last Dance Tabs
Little Miss Disaster Ukulele
Mark Viduka Ukulele


Song lyrics



↑ Back to top | Tablatures and chords are parodies/interpretations of the original songs. You may use it for private study, scholarship, research or language learning purposes only
© 2014 AZChords.com Contact us | Privacy policy | DMCA | Add/correct tabs | Request tabs | Top 50 tabs