>
 >
Firewater Joyride

Firewater Joyride Guitar Tabs

A Life Once Lost - Firewater Joyride chords, tabs, tablatures, lyrics

Guitar lessons | Add/correct | Request | Top 50 tabs Artists:  A B C D E F G H I J K L M N O P Q R S T U V W X Y Z 0-9

Firewater Joyride Guitar Tabs – A Life Once Lost

CD, Sheet music, Poster

Do you like Firewater Joyride? Share with your friends now
TabsTabs v2
~ = Vibrato
b = Bend
/ = Slide up
\ = Slide down
p = Pull-off
h = Hammer-on
* = Artificial Harmonic
...=Palm Mute

+--------------------------+
|NOTE: No solo, sorry guys.|
+--------------------------+

Verse
|--------------------------------------------------------------------|
|--------------------------------------------------------------------|
|--------------------------------------------------------------------|
|------0---------------------------------------------------------5-3-|
|------0---------------------------------------------------------5-3-|
|-/12\-0--0-3-0-0-5-0-0-6-0-7-0-10-0-12~-0-15-12-0-11-12-0-6-7-0-5-3-|

|---------------------------------------------------------------|
|---------------------------------------------------------------|
|---------------------------------------------------------------|
|-0---------------------------------------------------------5-3-|
|-0---------------------------------------------------------5-3-|
|-0--0-3-0-0-5-0-0-6-0-7-0-10-0-12~-0-15-12-0-11-12-0-6-7-0-5-3-|

|---------------------------------------------------------------|
|---------------------------------------------------------------|
|---------------------------------------------------------------|
|-0---------------------------------------------------------5-3-|
|-0---------------------------------------------------------5-3-|
|-0--0-3-0-0-5-0-0-6-0-7-0-10-0-12~-0-15-12-0-11-12-0-6-7-0-5-3-|
     .   . .   . .   .   .    .     .       .       .     .

|---------------------------------------------------------------|
|---------------------------------------------------------------|
|---------------------------------------------------------------|
|-0---------------------------------------------------------5-3-|
|-0---------------------------------------------------------5-3-|
|-0--0-3-0-0-5-0-0-6-0-7-0-10-0-12~-0-15-12-0-11-12-0-6-7-0-5-3-|

Pre-Chorus
Guitar 1
|--------------------------------|
|--------------------------------|
|--------------------------------|
|-0-5--5-5--5-5-5-3b-------------|
|-0-5--5-5--5-5-5-3b--0-0-0-0----|
|-0-5--5-5--5-5-5-3b--0-0-0-0-3*-|
                      . . . .

Guitar 2
|--------------------------------|
|--------------------------------|
|--------------------------------|
|-0-5--5-5--5-5-5-3b-------------|
|-0-5--5-5--5-5-5-3b--0-0-0-0-3*-|
|-0-5--5-5--5-5-5-3b--0-0-0-0----|
                      . . . .

Chorus
|---------------------------------------------------------------------|
|---------------------------------------------------------------------|\
|---------------------------------------------------------------------| \
|-0-0-0-------------0-0-0-------------0-0-0---------------------3-3-3-|  \
|-0-0-0-10~----10~--0-0-0-10-0-0-10~--0-0-0-10--0-10-8b-0-0-0-0-3-3-3-|   \
|-0-0-0------0------0-0-0----0-0------0-0-0-----0-------0-0-0-0-3-3-3-|    \
                    . . .    . .                        . . . .            Repeat 2x
                                                                           /
|---------------------------------------------------------------------|   /
|---------------------------------------------------------------------|  /
|---------------------------------------------------------------------| /
|-0-0-0-------------0-0-0-------------0-0-0---------------------------|/
|-0-0-0-10~----10~--0-0-0-10-0-0-10~--0-0-0-10--0-10-8b-0-0-0-5-3-0---|
|-0-0-0------0------0-0-0----0-0------0-0-0-----0-------0-0-0-------6-|
                    . . .    . .                        . . .

Verse
|--------------------------------------------------------------|
|--------------------------------------------------------------|
|--------------------------------------------------------------|
|----------------------------------------------------------5-3-|
|----------------------------------------------------------5-3-|
|-0-0-3-0-0-5-0-0-6-0-7-0-10-0-12~-0-15-12-0-11-12-0-6-7-0-5-3-|

|---------------------------------------------------------------|
|---------------------------------------------------------------|
|---------------------------------------------------------------|
|-0---------------------------------------------------------5-3-|
|-0---------------------------------------------------------5-3-|
|-0--0-3-0-0-5-0-0-6-0-7-0-10-0-12~-0-15-12-0-11-12-0-6-7-0-5-3-|

|---------------------------------------------------------------|
|---------------------------------------------------------------|
|---------------------------------------------------------------|
|-0---------------------------------------------------------5-3-|
|-0---------------------------------------------------------5-3-|
|-0--0-3-0-0-5-0-0-6-0-7-0-10-0-12~-0-15-12-0-11-12-0-6-7-0-5-3-|
     .   . .   . .   .   .    .     .       .       .     .

|---------------------------------------------------------------|
|---------------------------------------------------------------|
|---------------------------------------------------------------|
|-0---------------------------------------------------------5-3-|
|-0---------------------------------------------------------5-3-|
|-0--0-3-0-0-5-0-0-6-0-7-0-10-0-12~-0-15-12-0-11-12-0-6-7-0-5-3-|

Pre-Chorus
Guitar 1
|--------------------------------|
|--------------------------------|
|--------------------------------|
|-0-5--5-5--5-5-5-3b-------------|
|-0-5--5-5--5-5-5-3b--0-0-0-0----|
|-0-5--5-5--5-5-5-3b--0-0-0-0-3*-|
                      . . . .

Guitar 2
|--------------------------------|
|--------------------------------|
|--------------------------------|
|-0-5--5-5--5-5-5-3b-------------|
|-0-5--5-5--5-5-5-3b--0-0-0-0-3*-|
|-0-5--5-5--5-5-5-3b--0-0-0-0----|
                      . . . .

Chorus
|---------------------------------------------------------------------|
|---------------------------------------------------------------------|
|---------------------------------------------------------------------|
|-0-0-0-------------0-0-0-------------0-0-0---------------------3-3-3-|
|-0-0-0-10~----10~--0-0-0-10-0-0-10~--0-0-0-10--0-10-8b-0-0-0-0-3-3-3-|
|-0-0-0------0------0-0-0----0-0------0-0-0-----0-------0-0-0-0-3-3-3-|
                    . . .    . .                        . . . .

|---------------------------------------------------------------------|
|---------------------------------------------------------------------|
|---------------------------------------------------------------------|
|-0-0-0-------------0-0-0-------------0-0-0---------------------------|
|-0-0-0-10~----10~--0-0-0-10-0-0-10~--0-0-0-10--0-10-8b-0-0-0-5-3-0---|
|-0-0-0------0------0-0-0----0-0------0-0-0-----0-------0-0-0-------6-|
                    . . .    . .                        . . .

|---------------------------------------------------------------------|
|---------------------------------------------------------------------|
|---------------------------------------------------------------------|
|-0-0-0-------------0-0-0-------------0-0-0---------------------3-3-3-|
|-0-0-0-10~----10~--0-0-0-10-0-0-10~--0-0-0-10--0-10-8b-0-0-0-0-3-3-3-|
|-0-0-0------0------0-0-0----0-0------0-0-0-----0-------0-0-0-0-3-3-3-|
                    . . .    . .                        . . . .

|---------------------------------------------------------------------|
|---------------------------------------------------------------------|
|---------------------------------------------------------------------|
|-0-0-0-------------0-0-0-------------0-0-0---------------------3-3-0-|
|-0-0-0-10~----10~--0-0-0-10-0-0-10~--0-0-0-10--0-10-8b-0-0-0-0-3-3-0-|
|-0-0-0------0------0-0-0----0-0------0-0-0-----0-------0-0-0-0-3-3-0-|
                    . . .    . .                        . . . .

Pre-Solo
Guitar 1
|------------------------|
|------------------------|\
|------------------------| \
|-3-5-3-6-5--3---0-3-3-0-|  \
|--------------3---3-3-0-|   \
|------------------3-3-0-|    \
                               Repeat 3x
Guitar 2                      /
|------------------------|   /
|------------------------|  /
|------------------------| /
|------------------3-3-0-|/
|------------------3-3-0-|
|------------------3-3-0-|

Both Guitars
|----------------------------|
|----------------------------|
|-5-5-----------5-5----5-----|
|-5-5-0--3-3-0--5-5-0--5-0-0-|
|-3-3-0--3-3-0--3-3-0--3-0-0-|
|-----0--3-3-0------0----0-0-|

|------------------------|
|------------------------|
|------------------------|
|-3-5-3-6-5--3---0-3-3-0-| Repeat 3x
|--------------3---3-3-0-|
|------------------3-3-0-|

|----------------------------|
|----------------------------|
|-5-5-----------5-5----5-7---|
|-5-5-0--3-3-0--5-5-0--5-7-0-|
|-3-3-0--3-3-0--3-3-0--3-5-0-|
|-----0--3-3-0------0------0-|

Solo
Sorry guys, don't have the solo, but, I have the rhythm guitar for the solo:

|------------------------|
|------------------------|
|------------------------|
|-3-5-3-6-5--3---0-3-3-0-| Repeat 3x
|--------------3---3-3-0-|
|------------------3-3-0-|

|----------------------------|
|----------------------------|
|-5-5-----------5-5----5-7---|
|-5-5-0--3-3-0--5-5-0--5-7-0-|
|-3-3-0--3-3-0--3-3-0--3-5-0-|
|-----0--3-3-0------0------0-|

|------------------------|
|------------------------|
|------------------------|
|-3-5-3-6-5--3---0-3-3-0-| Repeat 3x
|--------------3---3-3-0-|
|------------------3-3-0-|

|--------------------------|
|--------------------------|
|-5-5-----------5-5----5-7-|
|-5-5-0--3-3-0--5-5-0--5-7-|
|-3-3-0--3-3-0--3-3-0--3-5-|
|-----0--3-3-0------0------|

|----------------------------|
|----------------------------|
|----------------------------|
|-5--5-5--5-5-5-3b-----------|
|-5--5-5--5-5-5-3b--0-0-0----|
|-5--5-5--5-5-5-3b--0-0-0-3*-|

Chorus
Both Guitars
|---------------------------------------------------------------------|
|---------------------------------------------------------------------|\
|---------------------------------------------------------------------| \
|-0-0-0-------------0-0-0-------------0-0-0---------------------3-3-3-|  \
|-0-0-0-10~----10~--0-0-0-10-0-0-10~--0-0-0-10--0-10-8b-0-0-0-0-3-3-3-|   \
|-0-0-0------0------0-0-0----0-0------0-0-0-----0-------0-0-0-0-3-3-3-|    \
                    . . .    . .                        . . . .            Repeat 2x
                                                                           /
|---------------------------------------------------------------------|   /
|---------------------------------------------------------------------|  /
|---------------------------------------------------------------------| /
|-0-0-0-------------0-0-0-------------0-0-0---------------------------|/
|-0-0-0-10~----10~--0-0-0-10-0-0-10~--0-0-0-10--0-10-8b-0-0-0-5-3-0---|
|-0-0-0------0------0-0-0----0-0------0-0-0-----0-------0-0-0-------6-|
                    . . .    . .                        . . .

Outro
|----------|
|----------|
|----------|
|-0------0-|
|-0--0-0-0-|
|-0--0-0-0-|
     . .


Check out my band while you're at it. ;D





Comments


Popular A Life Once Lost tabs & chords
Pain And Panic Bass Tabs
Hunter Intro Tabs
Joan Said Please Tabs
Masks Intro Tabs
Meth Mouth Tabs
Pigeonholed Tabs
Vulture 2 Tabs
Vulture 3 Tabs
Vulture 4 Tabs
Vulture 5 Tabs


Song lyrics



↑ Back to top | Tablatures and chords are parodies/interpretations of the original songs. You may use it for private study, scholarship, research or language learning purposes only
© 2014 AZChords.com Contact us | Privacy policy | DMCA | Add/correct tabs | Request tabs | Top 50 tabs