» » »

Alicia Keys, No One Tabs (ver.2)

Artists:  A B C D E F G H I J K L M N O P Q R S T U V W X Y Z # 

No One Tabs (ver.2)

Alicia Keys Tabs
3.7/5 (6 votes)
No One lessons Tabs too difficult? Try these video lessons and learn fast
Alicia Keys
No One
Intro + Verse

Great Song!

I´m not a pro and i quickly wrote it down so please help to get it better!

	E/B			B6
B   -9-9-----9---------|---7-9-7---9-7------|
G   -----9-----9-------|-8-------------8----|
D   -9-----------9-----|--------------------|
A   -7-----------------|-9------------------|
E   -7-----------------|-7------------------|

	cm#			A
B   -9-9-----9---------|-5-5-----5----------|
G   -----9-----9-------|-----6-----6--------|
D   -------------11----|-------------7------|
A   -11----------------|-7------------------|
E   -9-----------------|-5------------------|
Submit corrections

comments powered by Disqus
↑ Back to top | Alicia Keys Tabs for No One. Lyrics for acoustic guitar and electric guitar. Tablatures and chords are parodies/interpretations of the original songs. You may use it for private study, scholarship, research or language learning purposes only