» » »

No One Tabs (ver.2)

Artists:  A B C D E F G H I J K L M N O P Q R S T U V W X Y Z # 

No One Tabs (ver.2)

Alicia Keys
Rating:
3/5 (2 votes)

Hard to play? Try these video lessons and learn fast.
                (Intro)
Alicia Keys
No One
Intro + Verse

Great Song!

I´m not a pro and i quickly wrote it down so please help to get it better!


	E/B			B6
   --------7-----------|---------7----------|
B   -9-9-----9---------|---7-9-7---9-7------|
G   -----9-----9-------|-8-------------8----|
D   -9-----------9-----|--------------------|
A   -7-----------------|-9------------------|
E   -7-----------------|-7------------------|

	cm#			A
   --------9-----------|-------5------------|
B   -9-9-----9---------|-5-5-----5----------|
G   -----9-----9-------|-----6-----6--------|
D   -------------11----|-------------7------|
A   -11----------------|-7------------------|
E   -9-----------------|-5------------------|
            
Hard to play? Try these video lessons and learn fast. | Correct




comments powered by Disqus
↑ Back to top | Tablatures and chords are parodies/interpretations of the original songs. You may use it for private study, scholarship, research or language learning purposes only