» » »

No One Tabs (ver.3)

Artists:  A B C D E F G H I J K L M N O P Q R S T U V W X Y Z # 

No One Tabs (ver.3)

Alicia Keys
Rating:
5/5 (14 votes)

Hard to play? Try these video lessons and learn fast.
                -----------------------------------|

Tuning:

e|--4--4--0--7--4--0-----|
B|--0-----------------0--|
G|-----------------------|
D|-----------------------|
A|-----------------------|
E|-----------------------|

e|---2--4-----7--4--2----|
B|4--------7-----------4-|
G|-----------------------|
D|-----------------------|
A|-----------------------|
E|-----------------------|

e|---0--4--0--7--4--0----|
B|2--------------------2-|
G|-----------------------|
D|-----------------------|
A|-----------------------|
E|-----------------------|

e|------0-----5--0-------|
B|---2-----2--------2----|
G|2--------------------2-|
D|-----------------------|
A|-----------------------|
E|-----------------------|
            
Hard to play? Try these video lessons and learn fast. | Correct




comments powered by Disqus
↑ Back to top | Tablatures and chords are parodies/interpretations of the original songs. You may use it for private study, scholarship, research or language learning purposes only