» » »

No One Bass tabs (ver.1)

Artists:  A B C D E F G H I J K L M N O P Q R S T U V W X Y Z # 

No One Bass tabs (ver.1)

Alicia Keys
Rating:
5/5 (1 vote)

Hard to play? Try these video lessons and learn fast.
                -------------------------------------------------------------------------------
			     NO ONE – Alicia Keys	
-------------------------------------------------------------------------------


Tuning: Standard

G|---1---1----4--1----------------1------4--1-----------------------------|
D|---------2-------2--------1--4-----4----------4---1---------------------|
A|-------------------2----------------------------------------------------|
E|------------------------------------------------------------------------|

G|----------1------4---1--------------------------2-----------------------|
D|------2-------2---------2----------------2--------2---------------------|
A|--4------------------------4------0--4------4--------4----0-------------|
E|------------------------------------------------------------------------|


| /  slide up
| \  slide down
| h  hammer-on
| p  pull-off
| ~  vibrato
| +  harmonic
| x  Mute note
===============================================================================
            
Hard to play? Try these video lessons and learn fast. | Correct




comments powered by Disqus
↑ Back to top | Tablatures and chords are parodies/interpretations of the original songs. You may use it for private study, scholarship, research or language learning purposes only