» » »

Alice In Chains, Rooster Tabs (ver.1)

Artists:  A B C D E F G H I J K L M N O P Q R S T U V W X Y Z # 

Rooster Tabs (ver.1)

Alice In Chains Tabs
 Rating:
4/5 (4 votes)
Rooster lessons Tabs too difficult? Try these video lessons and learn fast
1
                Okay, here is the CORRECT way to play Rooster by Alice in Chains:
=0D

(As always, tune down 1/2 step!)
=0D
Intro:
     =

Guitar 1 (clean w/ chorus)     =

=0D
     F#  F#7add4         A   Aadd2
=0D
e----2-2-0---0-0-0-0--|--5-5-0---0-0-0-0-----
B----2-2-0---0-0-0-0--|--5-5-0---0-0-0-0-----
G----3-3-3---3-3-3-3--|--6-6-6---6-6-6-6-----
D----4-4-4---4-4-4-4--|--7-7-7---7-7-7-7-----   (Repeat a couple of times=
)
A----4-4-4---4-4-4-4--|--7-7-7---7-7-7-7-----
E----2-2-2---2-2-2-2--|--5-5-5---5-5-5-5-----
=0D

1st verse:
=0D
Guitar 1 repeats intro
=0D
Guitar 2 (w/ dist. & envelope filter) plays:
=0D
                           (fdbk)
e--------|-----|-----|-----|-----|-----|-----|-----|-----|-----------|
B--------|-----|-----|-----|-----|-----|-----|-----|-----|-----------|
G---6~~~~|~~~~~|~~~~~|~~~~~|~(6)~|~~~~~|~(6)~|~~~~~|~~~~~|~~~--------|
D--------|-----|-----|-----|-----|-----|-----|-----|-----|-----------|
A--------|-----|-----|-----|-----|-----|-----|-----|-----|---4--3--2-|
E--------|-----|-----|-----|-----|-----|-----|-----|-----|-----------|
=0D
e-------------|--------|---------|--5~~~-------|--5------|---------------=
--
B-------------|--------|----7~~~~|---------5-7-|----7----|--(7)~~~-------=
--
G-------------|--------|---------|--2~~~-------|--2------|---------------=
--
D-------4~~~~~|--------|--4------|---------2-4-|----4----|--(4)~~~-------=
--
A-------------|--------|---------|-------------|---------|---------------=
--
E--5-2--------|---5~~~~|---------|-------------|---------|---------------=
--
=0D


Chorus:
=0D
(I'm getting lazy, so you'll have to figure out the strumming by yourself=
=2E)
(It's not hard!)
=0D
   B   D                  F#7ADD4/E    F#     B/F#
=0D
e--7---10---X-X---         ---0--------2----------------------
B--7---10---X-X---         ---0--------2-------4--------------
G--8---11---X-X---         ---3--------3-------4--------------
D--9---12---X-X---         ---4--------4-------4--------------
A--9---12---X-X---         ---4--------4-------2--------------
E--7---10---------         ---0--------2-------2--------------
=0D

Then repeat the first B & D part, then this:
=0D
e--------0~~--|------------------|--------0~~---|-----5--(5)~~-----------=
-----
B--------0~~--|------------------|--------0~~---|-----5--(5)~~-----------=
-----
G--------3~~--|--2---------------|--------3~~---|--2--2--(2)~~-----------=
-----
D-----4--4~~--|--2---------------|--2-----4~~---|--2--2--(2)~~-----------=
-----
A--2--4--4~~--|--0--4~~-3~~-2~~--|--0--4--4~~---|--0--0--(0)~~-----------=
-----
E--0--2--2~~--|------------------|-----2--2~~---|------------------------=
---
=0D

Interlude:
=0D
e---------------|-------------|--------------|------------------------|--=
--
B---------------|-------------|--------------|------------------------|--=
--
G--4--3--4--4/6-|--6--4--4/6--|--3-----------|--4--3--4--4/6--6--6/9--|--=
--
D---------------|-------------|-----4--2--2--|------------------------|--=
--
A--2--1--2--2/4-|--4--2--2/4--|--1-----------|--2--1--2--2/6--4--4/7--|--=
--
E---------------|-------------|-----2--0--0--|------------------------|--=
--
=0D
e-----------------|------------------------------------------------------=

B-----------------|------------------------------------------------------=

G--9--9/11--9--11-|--14--11--9-------------------------------------------=

D-----------------|------------------------------------------------------=

A--7--7/9---7--9--|--12--9---7-------------------------------------------=

E-----------------|------------------------------------------------------=

=0D


2nd verse:
       fdbk                                                           =

e----|-------|----|----------|------|--------|--14---------|-------------=
---
B----|-------|----|--17--14--|--17--|--(17)--|--------17~~-|-14---14~~---=
---
G----|-------|----|----------|------|--------|-----14------|-14----------=
---
D--4-|--(4)--|----|----------|------|--------|-------------|----17-------=
---
A--4-|--(4)--|----|----------|------|--------|-------------|-------------=
---
E--2-|--(2)--|----|----------|------|--------|-------------|-------------=
---
=0D
e------------|-------------------------|----------------------------|----=
----
B--14'-------|-------------------------|----------------------------|----=
17~~
G--14'-------|-------14----------14----|-------14----16----14-16/18-|-18-=
----
D------16~~~-|-14-16----16-14-16----16-|-14-16----16----16----------|----=
----
A------------|-------------------------|----------------------------|----=
----
E------------|-------------------------|----------------------------|----=
----
=0D
Outro:
                           1/2             ALL BENDS 1/2
e--X--------|----|-16-17-16'`16--|-14------------------------------|----|=
-----
B----X------|----|---------------|-----16'`(16)-16'-16'-16'`(16)'--|-14-|=
-(14)
G------X----|----|---------------|---------------------------------|----|=
-----
D--------4--|----|---------------|---------------------------------|----|=
-----
A--------4--|----|---------------|---------------------------------|----|=
-----
E--------2--|----|---------------|---------------------------------|----|=
-----
=0D
and that's it...
=0D

        -Will
            
Submit corrections

comments powered by Disqus
↑ Back to top | Alice In Chains Tabs for Rooster. Lyrics for acoustic guitar and electric guitar. 1 Tablatures and chords are parodies/interpretations of the original songs. You may use it for private study, scholarship, research or language learning purposes only