» » »

Woman Of Mass Distraction Tabs (ver.1)

Artists:  A B C D E F G H I J K L M N O P Q R S T U V W X Y Z # 

Woman Of Mass Distraction Tabs (ver.1)

Alice Cooper
Rating:
0/5 (0 votes)
Tabs too difficult? Try these video lessons and learn fast.
                intro:
-------------------------------------------------------------------------|
-------------------------------------------------------------------------|
------8--13--10-------8--13--10--------------8--13--10-------------------|
--10--6--11--8----10--6--11--8---7h9p7p0--10-6--11--8--7h9p7p0-----------|
--8---------------8-----------------------8------------------------------|
-------------------------------------------------------------------------|
                            now play faster
-------------------------------------------------------------------------|
-------------------------------------------------------------------------|
------8--13--10-----------------8--13--10--------------------------------|
--10--6--11--8--7h9p7p0-----10--6--11--8--7h9p70-------------------------|
--8-------------------------8--------------------------------------------|
-------------------------------------------------------------------------|


-------------------------------------------------------------------------|
-------------------------------------------------------------------------|
------8--13--10-----------------8--13--10--------------8--13--10---------|
--10--6--11--8--7h9p7p0-----10--6--11--8--7h9p70---10--6--11--8----------|
--8-------------------------8----------------------8---------------------|
-------------------------------------------------------------------------|

-------------------------------------------------------------------------|
-------------------------------------------------------------------------|
-------------------------------------------------------------------------|
-------------------------------------------------------------------------|
-4-4-7-8-9--9-9-12--13-13-14--4-4-7-8-9--9-9---4-------------------------|
-2-2-5-6-7--7-7-10--11-11-12--2-2-5-6-7--7-7---2-------------------------|

--------------------------------------------------------------------------|
--------------------------------------------------------------------------|
--------------------------------------------------------------------------|
-------------------------------------9~p7---------------------------------|
-4-4-7-8-9--9-9-12-13-13-14--4-4-7-8--------------------------------------|
-2-2-5-6-7--7-7-10-11-11-12--2-2-5-6--------------------------------------|

verse:
--------------------------------------------------------------------------|
--------------------------------------------------------------------------|
--------------------------------------------------------------------------|
--------------------------------------------------------------------------|(x4)
-4----4-----4-4-7-8-9--9-9-12-13-13-14--4-4-7-8-9--9-9--4-----------------|
-2----2-----2-2-5-6-7--7-7-10-11-11-12--2-2-5-6-7--7-7--2-----------------|

pre-chorus:
---------------------------------------------------------------------------|
---------------------------------------------------------------------------|
---------------------------------------------------------------------------|
--7-7-7-7---------7-7-7-7------7-7-7-7---------4-----777777777-------------|
--5-5-5-5-7-7-7-7-5-5-5-5-4----5-5-5-5-7-7-7-7-2-----555555555-------------|
----------5-5-5-5---------2------------5-5-5-5-----------------------------|
chorus:

--------------------------------------------------------------------|
--------------------------------------------------------------------|
------8--13--10-------8--13--10---------8--13--10-------------------|
--10--6--11--8----10--6--11--8-------10-6--11--8---9~p7-------------|
--8---------------8------------------8------------------------------|
--------------------------------------------------------------------|

solo:
----------------------------------------------------------------------|
--7777-7--7777-7--7777-7--5555-5---5555-5--5555-5---------------------|
-------9b------9b------9b------7b-------7b------7b--------------------|
----------------------------------------------------------------------|
----------------------------------------------------------------------|
----------------------------------------------------------------------|
                                                                 ring
----------------------------------------------------------------------|
-3--5--7--9---10---17b-15-15--17b-15-15--17b-15-15--17b-15-15-15-17b--|
-5b-7b-9b-11b-12b-----------------------------------------------------|
----------------------------------------------------------------------|
----------------------------------------------------------------------|
----------------------------------------------------------------------|

----------------------------------------------------------------------|
-17b-15---------------------------------------------------------------|
--------15------------------------------------------------------------|
----------------------------------------------------------------------|
----------------------------------------------------------------------|
----------------------------------------------------------------------|

put it in the correct order and it's a great song!;)
            
Tabs too difficult? Try these video lessons and learn fast.


comments powered by Disqus
↑ Back to top | Tablatures and chords are parodies/interpretations of the original songs. You may use it for private study, scholarship, research or language learning purposes only