» » »

Alice Cooper, Wicked Young Man Tabs (ver.2)

Artists:  A B C D E F G H I J K L M N O P Q R S T U V W X Y Z # 

Wicked Young Man Tabs (ver.2)

Alice Cooper Tabs
 Rating:
4/5 (4 votes)
Wicked Young Man lessons Tabs too difficult? Try these video lessons and learn fast
                -------------------------------------------------------------------------------
                             WICKED YOUNG MAN - Alice Cooper
-------------------------------------------------------------------------------

Tuning: eB Bb Gb Db Ab C# (1/2 step down Drop D)

riff 1
 | x3             | x1       |
e|----------------|----------|
B|----------------|----------|
G|----------------|----------|
D|----------------|----------|
A|----------------|----------|
E|-0-0-0-0-0-0-0--|-0-0-0-0--|
-|                |          |
e|----------------|----------|
B|----------------|----------|
G|----------------|----------|
D|----------------|----------|
A|----------------|----------|
E|-0+0+0+0+0+0+0+-|-0+0+0+0+-|

main riff:
 |x 3                | x1              | x3                | x1
e|-------------------|-----------------|-------------------|-----------------|
B|-------------------|-----------------|-------------------|-----------------|
G|-------------------|-----------------|-------------------|-----------------|
D|-0-0-3-5-5/6-6-5-3-|-6-6-6-5-5-5-3-3-|-0-0-3-5-5/6-6-5-3-|-6-6-6-5-5-5-3-3-|
A|-0-0-3-5-5/6-6-5-3-|-6-6-6-5-5-5-3-3-|-0-0-3-5-5/6-6-5-3-|-6-6-6-5-5-5-3-3-|
E|-0-0-3-5-5/6-6-5-3-|-6-6-6-5-5-5-3-3-|-0-0-3-5-5/6-6-5-3-|-6-6-6-5-5-5-3-3-|
-|                   |                 |                   |
e|-------------------|-----------------|-------------------|----------------|
B|-------------------|-----------------|-------------------|----------------|
G|-------------------|-----------------|-------------------|----------------|
D|-------------------|-----------------|-------------------|----------------|
A|-------------------|-----------------|-------------------|----------------|
E|-------------------|-----------------|-0+0+0+0+0+0+0+----|-0+0+0+0+-------|

verse:
e|-----------------------------------------------------------------|
B|-----------------------------------------------------------------|
G|-----------------------------------------------------------------|
D|-6---6---------------------------6---6-----------6---5---3-------|
A|---5-------------------------------5---------------5---5---------|
E|-----------------------------------------------------------------|
-|
e|-----------------------------------------------------------------|
B|-----------------------------------------------------------------|
G|-----------------------------------------------------------------|
D|-----------------------------------------------------------------|
A|-0-0-0-0-0-0-0-0-0-0-0-0-0-0-0-0-0-0-0-0-0-0-0-0-0-0-0-0-0-0-0-0-|
E|-0-0-0-0-0-0-0-0-0-0-0-0-0-0-0-0-0-0-0-0-0-0-0-0-0-0-0-0-0-0-0-0-|

e|-----------------------------------------------------------------|
B|-----------------------------------------------------------------|
G|-----------------------------------------------------------------|
D|-6---6---------------------------6---5-----------6---5---3-------|
A|---5-------------------------------5---------------5---5---------|
E|-----------------------------------------------------------------|
-|
e|-----------------------------------------------------------------|
B|-----------------------------------------------------------------|
G|-----------------------------------------------------------------|
D|-----------------------------------------------------------------|
A|-0-0-0-0-0-0-0-0-0-0-0-0-0-0-0-0-0-0-0-0-0-0-0-0-0-0-0-0-0-0-0-0-|
E|-0-0-0-0-0-0-0-0-0-0-0-0-0-0-0-0-0-0-0-0-0-0-0-0-0-0-0-0-0-0-0-0-|

main riff 2:
 |x 3                | x1              |
e|-------------------|-----------------|
B|-------------------|-----------------|
G|-------------------|-----------------|
D|-0-0-3-5-5/6-6-5-3-|-6-6-6-5-5-5-3-3-|
A|-0-0-3-5-5/6-6-5-3-|-6-6-6-5-5-5-3-3-|
E|-0-0-3-5-5/6-6-5-3-|-6-6-6-5-5-5-3-3-|
-|                   |                 |
e|-------------------|-----------------|
B|-------------------|-----------------|
G|-------------------|-----------------|
D|-------------------|-----------------|
A|-------------------|-----------------|
E|-0+0+0+0+0+0+0+----|-0+0+0+0+0+0+0+--|

verse

chorus:
e|-------------------------------------|---------------------------------|
B|-------------------------------------|---------------------------------|
G|-------------------------------------|---------------------------------|
D|-----------------6-6-6-6-6-6-6-6-----|-----------------6-6-6-5-5-5-3-3-|
A|-5-5-5-5-5-5-5-5---------------------|-5-5-5-5-5-5-5-5-----------------|
E|-------------------------------------|---------------------------------|
-|                                     |
e|-------------------------------------|-------------------------------------|
B|-------------------------------------|-------------------------------------|
G|-7-7-7-7-7-7-------------------------|-------------------------------------|
D|-7-7-7-7-7-7-------3-3-3-3-3-5-------|-7-7-7-7-7-7-------3-3-3-3-3-5-------|
A|-5-5-5-5-5-5-5p3p0-3-3-3-3-3-5-5-3p0-|-5-5-5-5-5-5-5p3p0-3-3-3-3-3-5-5-3p0-|
E|-0-0-0-0-0-0-------3-3-3-3-3-5-------|-0-0-0-0-0-0-------3-3-3-3-3-5-------|

main riff 2
verse
main riff 2
chorus
verse (guitar 1 only)

main riff 3:
 |x 3                |
e|-------------------|
B|-------------------|
G|-------------------|
D|-0-0-3-5-5/6-6-5-3-|
A|-0-0-3-5-5/6-6-5-3-|
E|-0-0-3-5-5/6-6-5-3-|
-|                   |
e|-------------------|
B|-------------------|
G|-------------------|
D|-------------------|
A|-------------------|
E|-------------------|

chorus
main riff

riff 2:
riff 1
 | x3             |
e|----------------|
B|----------------|
G|----------------|
D|----------------|
A|----------------|
E|-0-0-0-0-0-0-0--|
-|                |
e|----------------|
B|----------------|
G|----------------|
D|----------------|
A|----------------|
E|-0+0+0+0+0+0+0+-|


| /  slide up
| \  slide down
| h  hammer-on
| p  pull-off
| ~  vibrato
| +  harmonic
| x  Mute note
===============================================================================
            
Submit corrections

comments powered by Disqus
↑ Back to top | Alice Cooper Tabs for Wicked Young Man. Lyrics for acoustic guitar and electric guitar. Tablatures and chords are parodies/interpretations of the original songs. You may use it for private study, scholarship, research or language learning purposes only