» » »

Alice Cooper, Welcome To My Nightmare Tabs (ver.1)

Artists:  A B C D E F G H I J K L M N O P Q R S T U V W X Y Z # 

Welcome To My Nightmare Tabs (ver.1)

Alice Cooper Tabs
Rating:
0/5 (0 votes)
Welcome To My Nightmare lessons Tabs too difficult? Try these video lessons and learn fast
                song-welcome to my Nightmare
arist-Alice Cooper
album-Welcome to my Nightmare 1975
guitarists-Dick Wagner, Steve Hunter
words by-Alice Cooper

HERE IT IS! finally the Alice Cooper song everyones been waiting for..well not really.
its the one ive been waiting for.. but since is hasnt shown up i  decided to take
matters into my own hands. so yeah if this isnt completely right i apologize but i just
couldnt bare this site not having a version of this tab any longer! so here it is


/slide
h-hammeron
v1-verse1 lyrics
v2-verse2 lyrics
b-bend up

to get the intro to sound right you have to play the chords soft and slow.
the hammerons in the intro are optional but personally i think they sound more corect to the song.

verse 1 and 2 are writen above the pending guitar part.

|---------------------------|
|---------------------------|
|---------------------------|
|---------------------------|
|---------------------------|
|----------------------7s2--|

|-----------|-------7--------|
|-----------|-------5--------|
|-----------|-------4--------|
|-----------|-------0--------|
|------5-7--|----------------|
|-0-5h7-----|-0--------------|

|-----------|----------------|
|-----------|----------------|
|-----------|----------------|
|-----------|----------------|
|------5-7--|----------------|
|-0-5h7-----|-0---0---0-0----|

|-----------|-------7--------|
|-----------|-------5--------|
|-----------|-------4--------|
|-----------|-------0--------|
|------5-7--|----------------|
|-0-5h7-----|-0--------------|

|-----------|----------------|
|-----------|----------------|
|-----------|----------------|
|-----------|----------------|
|------5-7--|----------------|
|-0-5h7-----|-0--------------|
v1  welcome to my nightmare
v2  a nocternal vacatrion
|-0---------|----------------------|
|-8---------|----------------4-8-7-|
|-0---------|---------------5------|
|-9---------|----------------------|
|-7---------|----------------------|
|-----------|----------------------|
i think your gonna like    it
un necessary    sed a    tion
|-------------------------|---------------|
|-------------------------|------4-7-5----|
|-------------------------|-----5---------|
|-------------------------|---------------|
|-------------------------|---------------|
|-------------------------|---------------|
i think your gonna feel you belong
you wann feel at home cuz you 
|-------------------|---------|-------------|--0---|
|-------------------|---------|-------------|--8---|
|-------------------|---------|-------------|--0---|
|-------------------|---------|-------------|--9---|
|-------------------|---------|-------------|--7---|
|-------------------|---------|--0----------|------|

belong
   |--------|--------|---------|
   |--------|--------|---------|
   |--------|--------|---------|
   |--------|--5-----|---------|
   |---7-7-5|----7-5-|-7-------|
   |-0------|7-------|---0-5-7-|


welcome to my nightmare woa woa
                      |------------|
                      |------------|
                      |--------7--9|
                      |--------7--9|
                      |------5-5--7|
                      |------------|
verse
guitar1(im nto sure if this parts right.)this part is the same for all the verses and
even if it isnt exaclty right its pretty close. but theres so much other stuff going
on in the song that its hard to here which part the guitar plays exaclty.

this is all verse1
welcome to my  breakdown
i hope i didnt scare you
thats jsut the way were are ween we come down
we sweat laugh and scream here
coz life is jsut a dream here
you now inside you feel right at home

|--x-x---x-x-----|-x-x---7-7-----|
|--x-x-5-x-x-5-5-|-x-x-5-5-5-5-5-|
|--x-x-4-x-x-4-4-|-x-x-4-4-4-4-4-|
|----------------|---------------|
|----------------|---------------|
|----------------|---------------|
guitar2
|---------------|---------0-0-----|
|---------------|---------8-8-----|
|-----9-9-x-9-9-|-----9-9-0-0-9-9-|
|-----9-9-x-9-9-|-----9-9-9-9-9-9-|
|-5/7-7-7-x-7-7-|-5/7-7-7-7-7-7-7-|
|---------------|-----------------|

welcome to my breakbown
yeah welcome to my nightmare woa woa

|----------------------------------|
|----------------------------------|
|----------------------------------|
|-----9-9-9-9-9-9-9-9-9------5-----|
|-----9-9-9-9-9-9-9-9-9----5---7---|
|-0-5-7-7-7-7-7-7-7-7-7--0---------|


|--x-x---x-x-----|-x-x---7-7-----|
|--x-x-5-x-x-5-5-|-x-x-5-5-5-5-5-|
|--x-x-4-x-x-4-4-|-x-x-4-4-4-4-4-|
|----------------|---------------|
|----------------|---------------|
|----------------|---------------|
guitar2
|---------------|---------0-0-----|
|---------------|---------8-8-----|
|-----9-9-x-9-9-|-----9-9-0-0-9-9-|
|-----9-9-x-9-9-|-----9-9-9-9-9-9-|
|-5/7-7-7-x-7-7-|-5/7-7-7-7-7-7-7-|
|---------------|-----------------|

bridge
the baring on this is probly wrong so just play it and figure out where evrthing goes.

|-14b15--12-12--9|9--9-7-5-8--|-8-7-7--5|5-5-3-1---|
|----------------|------------|---------|--------3-|
|----------------|------------|---------|----------|
|----------------|------------|---------|----------|
|----------------|------------|---------|----------|
|----------------|------------|---------|----------|

|------|-------|--------|--------------|-----------|-20-22-----|
|-5-7--|-8----9|-12-13--|-15~17~-18b19-|-20-22-24--|-----------|
|------|----------------|--------------|-----------|-----------|
|------|----------------|--------------|-----------|-----------|
|------|----------------|--------------|-----------|-----------|
|------|----------------|--------------|-----------|-----------|

theres a solo riff right after that that im not sure of.

after that its jsut straight verse and chorus action with a few of the begining riffs
put in there. so yeah i really really hope this is right and if you have any suggestions
that would be greatly appriciatd. thanx for checking out my tab. to check out more of
em jsut go to the top of the page. and click on more tabs by:smellslikefeet1
            

comments powered by Disqus
↑ Back to top | Alice Cooper Tabs for Welcome To My Nightmare. Lyrics for acoustic guitar and electric guitar. Tablatures and chords are parodies/interpretations of the original songs. You may use it for private study, scholarship, research or language learning purposes only