» » »

Alice Cooper, Vengeance Is Mine Tabs (ver.1)

Artists:  A B C D E F G H I J K L M N O P Q R S T U V W X Y Z # 

Vengeance Is Mine Tabs (ver.1)

Alice Cooper Tabs
Rating:
0/5 (0 votes)
Vengeance Is Mine lessons Tabs too difficult? Try these video lessons and learn fast
                Band: Alice Cooper
 
NOTE: Guitar 2 is in Drop D tuning, and I didn't tab all of Slash's guitar parts.

Keys
b = bend
r = release
\ = slide up neck 
/ = slide down neck
h = hammer-on
p = pull-off
w = whammy bar
~ = vibrato

Drum Intro

Guitar 2
E--------------------------------------------------|
B--------------------------------------------------|
G--------------------------------------------------| 4x
D--------------------------------------------------|
A-------5---------------------3--------------------|
D-0--0-----5----5/0--0--3--3-----2----0---3--4--5--|

Guitar 1 (Slash)
E------------------------------13----13--15b17------------------------|
B----------------------/13b15--------------------------13--15--15-----|
G-9~~~~~~------------------------------------------14-----------------|
D---------------------------------------------------------------------|
A---------------------------------------------------------------------|
E---------------------------------------------------------------------|

“They hated every part of me,			 “Expect me to forget it”
Guitar 1
E-----------------------------------------------------------------------|
B-----------------------------------------------------------------------|
G----------------------------------------/7\----------------------------|
D-----------------------------------------------------------------------|
A-----------------------------------------------------------------------|
E-----------------------------------------------------------------------|

Guitar 2
E-----------------------------------------------------------------------|
B-----------------------------------------------------------------------|
G-----------------------------------------------------------------------|
D--------------5--------------------------------------------5-----------|
A-0--0---3--5--5---0--3------------------------0--0---3--5--5---0--3----|
D-0--0---3--5------0--3----0-------------------0--0---3--5------0--3----|

					“They tried so hard to bury me”
Guitar 1
E-----------------------------------------------------------------------|
B-----------------------------------------------------------------------|
G----------5b7---5------------------------------------------------------|
D--------------------3h5p3----------------------------------------------|
A---------------------------5-------------------------------------------|
E-----------------------------------------------------------------------|

Guitar 2
E-----------------------------------------------------------------------|
B-----------------------------------------------------------------------|
G-----------------------------------------------------------------------|
D--------------------------------------------------------5--------------|
A-------------------------------------------0--0---3--5--5---0--3-------|
D---0---------------------------------------0--0---3--5------0--3----0--|

				“But I survived it every time”
Guitar 1
E-13-13-x-x-13-13-13-x-x-13-13-13-x-x-----------------------------------|
B-10-10-x-x-10-10-10-x-x-10-10-10-x-x-13b15~~~~-hold-bend---------------|
G-10-10-x-x-10-10-10-x-x-10-10-10-x-x-----------------------------------|
D-----------------------------------------------------------------------|
A-----------------------------------------------------------------------|
E-----------------------------------------------------------------------|

Guitar 2
E-----------------------------------------------------------------------|
B-----------------------------------------------------------------------|
G-----------------------------------------------------------------------|
D-------------------------------------------------------5---------------|
A------------------------------------------0--0---3--5--5---0--3--------|
D------------------------------------------0--0---3--5------0--3----0---|

"Convicted of every crime Silently doing time But when I get outta here”
Guitar 2
E--------------------------------------------------------------------|
B-----------1----------------------1--------------------1------------|
G--------2----------------------2-------2------------2-------2-------|
D-----3----------3-----------3--------------------3------------------|
A--1----------------------0--------------------1---------------------|
D--------------------------------------------------------------------|

“I wanna make it clear”
Guitar 2
E----------------------------|
B----------------------------|
G-------2--------------------|
D----3-----2b3----0----------|
A-0--------------------------|
D---------------------3h5p3--|

“Vengeance is mine
Vengeance is mine
Vengeance is mine, mine, mine
To forgive is divine
But vengeance is mine, mine, mine”
E--------------------------------------------------|
B--------------------------------------------------|
G--------------------------------------------------| 5x
D--------------------------------------------------|
A-------5---------------------3--------------------|
D-0--0-----5----5/0--0--3--3-----2----0---3--4--5--|

“They torture every inch of me,		 “Expect me to forget it”
Guitar 1
E----------------------------------/10---10\----------------------------|
B-----------------------------------------------------------------------|
G-----------------------------------------------------------------------|
D-----------------------------------------------------------------------|
A-----------------------------------------------------------------------|
E-----------------------------------------------------------------------|

Guitar 2
E-----------------------------------------------------------------------|
B-----------------------------------------------------------------------|
G-----------------------------------------------------------------------|
D--------------5----------------------------------------------5---------|
A-0--0---3--5--5---0--3------------------------0--0---3--5--5---0--3----|
D-0--0---3--5------0--3----0-------------------0--0---3--5------0--3----|

				“They thought that they would finish me”
Guitar 1
E-----------------------------------------------------------------------|
B----------13b15---13---------------------------------------------------|
G-----------------------10h12--10---------------------------------------|
D-----------------------------------12----------------------------------|
A-----------------------------------------------------------------------|
E-----------------------------------------------------------------------|

Guitar 2
E-----------------------------------------------------------------------|
B-----------------------------------------------------------------------|
G-----------------------------------------------------------------------|
D--------------------------------------------------------5--------------|
A-------------------------------------------0--0---3--5--5---0--3-------|
D---0---------------------------------------0--0---3--5------0--3----0--|

“But I survived it every time”					“But I pull through everytime”
Guitar 1
E--------------------------------------------------------------------|
B-13b15---13----------10---13b15--------(hold bend)-----<15>r13--10--|
G--------------10h12-------------------------------------------------|
D--------------------------------------------------------------------|
A--------------------------------------------------------------------|
E--------------------------------------------------------------------|

Guitar 2
E--------------------------------------------------------------------|
B--------------------------------------------------------------------|
G--------------------------------------------------------------------|
D---------------------------------------------------5----------------|
A--------------------------------------0--0---3--5--5---0--3---------|
D--------------------------------------0--0---3--5------0--3----0----|

“Punish me everyday  But I'll never break  Hold on to all your fears”
E--------------------------------------------------------------------|
B-----------1----------------------1--------------------1------------|
G--------2----------------------2-------2------------2-------2-------|
D-----3----------3-----------3--------------------3------------------|
A--1----------------------0--------------------1---------------------|
D--------------------------------------------------------------------|

“Cause when I get outta here”
E----------------------------|
B----------------------------|
G-------2--------------------|
D----3-----2b3----0----------|
A-0--------------------------|
D---------------------3h5p3--|

“Vengeance is mine
Vengeance is mine
Vengeance is mine, mine, mine
To forgive is divine
But vengeance is mine, mine, mine”
E--------------------------------------------------|
B--------------------------------------------------|
G--------------------------------------------------| 5x
D--------------------------------------------------|
A-------5---------------------3--------------------|
D-0--0-----5----5/0--0--3--3-----2----0---3--4--5--|

Solo
Guitar 2 
E-----------------------------------------------------------------------------------|
B-----------------------------------------------------------------------------------|
G--------------------10-------------------------------------10-------10--12p10------|
D--------10--11--12-------12--10--12------------10--11--12-------12-------------12--|
A-----------------------------------------------------------------------------------|
D-0--0-----------------------------------0--0---------------------------------------|

E-------------------------------------------------------------------------------------|
B-------------------------------------------------------------------------------------|
G--------------------10~~--------------10--12--10-------------------------------------|
D--------10--11--12--------12--10--12--------------12--11--10-------------------------|
A--------------------------------------------------------------12--11--8--10--8--5~~~-|
D-0--0--------------------------------------------------------------------------------|

“(Vengeance, Vengeance, Vengeance, Vengeance)
What I want
(Vengeance, Vengeance, Vengeance, Vengeance)
What I need
(Vengeance, Vengeance, Vengeance
Vengeance, Vengeance, Vengeance, 
Vengeance)
What I want, What I need
What I want, What I need
(Vengeance, Vengeance, Vengeance
Vengeance, Vengeance, Vengeance, 
Vengeance)
What I want, What I need
What I want, What I need
(Vengeance, Vengeance, Vengeance
Vengeance, Vengeance, Vengeance, 
Vengeance)
Guitar 2 (use very heavy distortion)
E----------------------------------------------|
B----------------------------------------------|
G----------------------------------------------| repeat
D----------------------------------------------|
A---------5------------------------------------|
D-0---7-------6~~~------5~~~------3----5---3---|

“(Vengeance, Vengeance, Vengeance
Vengeance, Vengeance... Vengeance)”
Guitar 2 (use very heavy distortion)
E----------------------------|
B----------------------------|
G----------------------------|
D----------------------------|
A----------------------------|
D-6--5--6--5--6--5--6--5...--|

“Vengeance is mine, mine, mine
To forgive is divine
Not as rewarding I find
Because vengeance is mine...
Vengeance is mine, mine, mine
Vengeance is mine
Vengeance is mine, mine, mine
Mine, mine, mine, mine, mine”
Guitar 2
E--------------------------------------------------|
B--------------------------------------------------|
G--------------------------------------------------| repeat till end
D--------------------------------------------------|
A-------5---------------------3--------------------|
D-0--0-----5----5/0--0--3--3-----2----0---3--4--5--|
            

comments powered by Disqus
↑ Back to top | Alice Cooper Tabs for Vengeance Is Mine. Lyrics for acoustic guitar and electric guitar. Tablatures and chords are parodies/interpretations of the original songs. You may use it for private study, scholarship, research or language learning purposes only