>
 >
Spark In The Dark

Spark In The Dark Guitar Tabs

Alice Cooper - Spark In The Dark chords, tabs, tablatures, lyrics

Guitar lessons | Add/correct | Request | Top 50 tabs Artists:  A B C D E F G H I J K L M N O P Q R S T U V W X Y Z 0-9

Spark In The Dark Guitar Tabs – Alice Cooper

CD, Sheet music, Poster

Do you like Spark In The Dark? Share with your friends now
Tabs
"Spark in the Dark" by Alice Cooper
  Words and music by Desmond Child and Alice Cooper

  From the album Trash (1989)




   Note: Tune down one full step

E-|---------------------------------------------------------------------------|
B-|---------------------------------------------------------------------------|
G-|---------------------------------------------------------------------------|
D-|--------------3--3--------------------0--0------------------3--3-----------|
A-|--16\---5--5--------5--5--0--0--1--1--------0--0--3--5p4h5--------5--5-----|
E-|---------------------------------------------------------------------------|


   Guitar one
E-|---------------------------------------------------------------------------|
B-|---------------------------------------------------------------------------|
G-|---------------------------------------------------------------------------|
D-|--------------0--0------------------3--3--------------------0--0-----------|
A-|--0--0--1--1---------0--0--3--5p4h5--------5--5--0--0--1--1--------0---0---|
E-|---------------------------------------------------------------------------|
  |                                                                           |
  |Guitar two                                                                 |
E-|---------------------------------------------------------------------------|
B-|--------------------13-----13/15~~-----------------------------------------|
G-|--------------------12-----12/14~~----------------------------12--10---|
D-|-----------------x--10--x--10/12~~-----------------------------------------|
A-|---------------------------------------------------------------------------|
E-|---------------------------------------------------------------------------|


                                                       "Oh, wel-
   Guitar one
E-|---------------------------------------------------------------------------|
B-|---------------------------------------------------------------------------|
G-|---------------------------------------------------------------------------|
D-|-------------------3--3--------------------0--0----------------------------|
A-|--3--5------4--5--------5--5--0--0--1--1--------0--0--3--5--4--------------|
E-|---------------------------------------------------------------------------|
  |                                                                           |
  |Guitar two                                                                 |
E-|-------------------------------------------x\------------------------------|
B-|-------------------------------------------x\------------------------------|
G-|---------10----T-----------------------------------------------------------|
D-|-----10-------10\/---------------------------------------------------------|
A-|---------------------------------------------------------------------------|
E-|---------------------------------------------------------------------------|


   1. "-come to the  party,          it's only me and you."
   2. "around midnight.             We'll be crawling on the floor."
  w/Fill one over second verse
   Guitar one
E-|---------------------------------------------------------------------------|
B-|---------------------------------------------------------------------------|
G-|--------.--.--------------------.--.------------------.--.-----------------|
D-|--.--.--3--3--.--.--.--.--.--.--0--0--.--.--.--.---.--3--3--.--.--.--.-----|
A-|--5--5--------5--5--0--0--1--1--------0--0--3--5---5--------5--5--0--0-----|
E-|---------------------------------------------------------------------------|

  Fill one (repeat as necessary over Verse two)
E-|----10-------10----------10-------10--------|
B-|----10-------10----------10-------10--------|
G-|--------------------------------------------|
D-|--------------------------------------------|
A-|--------------------------------------------|
E-|--------------------------------------------|


                   "Tell the world to go away, babe,            and I'll tell
                         "Burnin' with a fever                  and      yell-
   Guitar one
E-|---------------------------------------------------------------------------|
B-|---------------------------------------------------------------------------|
G-|--------.--.------------------.--.--------------------.--.-----------------|
D-|--.--.--0--0--.--.--.--.------3--3--.--.--.--.--.--.--0--0--.--.--.--.-----|
A-|--1--1--------0--0--3--5p4h5--------5--5--0--0--1--1--------0--0--3--5-----|
E-|---------------------------------------------------------------------------|
  |                                                                           |
  |Guitar two                                                                 |
E-|---------------------------------------------------------------------------|
B-|--------------------------------------------------------------------10-----|
G-|---------------------------------------------------------------------7-----|
D-|---------------------------------------------------------------------7-----|
A-|---------------------------------------------------------------------------|
E-|---------------------------------------------------------------------------|


    "you what to do.                    Come over here and kiss me."
    "-ing out for more.                But don't write it in your diary,
E-|---------------------------------------------------------------------------|
B-|---------------------------------------------------------------------------|
G-|-----.--.--------------------.--.------------------------------------------|
D-|-----3--3--.--.--.--.--.--.--0--0--.--.--.---------3--3--------------------|
A-|--5--------5--5--0--0--1--1--------0--0--3--5p4h5--------5--5--0--0--------|
E-|---------------------------------------------------------------------------|


                   "I wanna pull your hair.                       Turn out the
       "baby.       Don't blab it on the phone.                   'Cause if your
E-|---------------------------------------------------------------------------|
B-|---------------------------------------------------------------------------|
G-|---------------------------------------------------------------------------|
D-|--------0--0------------------3--3--------------------0--0-----------------|
A-|--1--1--------0--0--3--5p4h5--------5--5--0--0--1--1--------0--0--3--5p4h5-|
E-|---------------------------------------------------------------------------|


    "lights and hold me.             I want to touch you everywhere."
    "mom and dad found out,              they'll skin me to the bone."
E-|---------------------------------------------------------------------------|
B-|---------------------------------------------------------------------------|
G-|---------------------------------------------------------------------------|
D-|--3--3--------------------0--0------------------3--3-----------------------|
A-|--------5--5--0--0--1--1--------0--0--3--5p4h5--------5--5--0--0-----------|
E-|---------------------------------------------------------------------------|


  Prechorus
                             "We don't need nobody,          baby."
                         Now, we don't need instructions,    baby."
   Guitar one
E-|---------------------------------------------------------------------------|
B-|---------------------------------------------------------------------------|
G-|---------------------------3--------3--------3---5--------5--------5-------|
D-|--------0--0--------2------3--------3-----3--3---5--------5-----5--5-------|
A-|--1--1--------3--3-----1---1--1--1--1--1--1--1---3--3--3--3--3--3--3-------|
E-|---------------------------------------------------------------------------|
  |                                                                           |
  |Guitar two                                                                 |
E-|--------------------------22-----------------------------------------------|
B-|---------------------------------------------------------------------------|
G-|---------------------------------------------------------------------------|
D-|---------------------------------------------------------------------------|
A-|---------------------------------------------------------------------------|
E-|---------------------------------------------------------------------------|


    "We don't need champagne.                      I'll take you to the
    "Don't you be afraid.                          It takes a little
   Guitar one
E-|---------------------------------------------------------------------------|
B-|---------------------------------------------------------------------------|
G-|--7--------7--------7------5-------------------------3--------3------------|
D-|--7--------7-----7--7------5-------------------------3--------3------------|
A-|--5--5--5--5--5--5--5------3-------3--3--3---3-------1--1--1--1--1--1------|
E-|---------------------------------------------------------------------------|
  |                                                                           |
  |Guitar two                                                                 |
E-|---------------------------12b-rb-12b----12b-rb-----------------11\--------|
B-|-------------------------------------------------11------------------------|
G-|---------------------------------------------------------------------------|
D-|---------------------------------------------------------------------------|
A-|---------------------------------------------------------------------------|
E-|---------------------------------------------------------------------------|


    "deepest,        darkest,        hottest lovers' lane for a little
    "friction                That's how our love is made, from a little
   Guitar one
E-|---------------------------------------------------------------------------|
B-|---------------------------------------------------------------------------|
G-|--3--3---5--------5--------5--5--------------------------------------------|
D-|--3--3---5--------5--------5--5---5---5--5--5--5--5--7--7--7--7--7--7--7--7|
A-|--1--1---3--3--3--3--3--3--3--3---5---5--5--5--5--5--7--7--7--7--7--7--7--7|
E-|----------------------------------3---3--3--3--3--3--5--5--5--5--5--5--5--5|
  |                                                                           |
  |Guitar two                                                                 |
E-|-------~~~~~~~\----------------------------------------------------|
B-|---------------------------11b-rb-b--15---------------17-------------------|
G-|-------------------------------------17b~~------------19b~~----------------|
D-|---------------------------------------------------------------------------|
A-|---------------------------------------------------------------------------|
E-|---------------------------------------------------------------------------|


  Chorus
    "spark in the dark.            Just a little spark in the dark."
    "spark in the dark.            Just a little spark in the dark."
   Guitar one
E-|---------------------------------------------------------------------------|
B-|---------------------------------------------------------------------------|
G-|--------------------------------5------------------------------------------|
D-|--------3--3---------------3----5-------------------3--3-------------------|
A-|--5--5--------5--5--0--0---1----3----3--0--3--5--5--------5--5--0--0-------|
E-|---------------------------------------------------------------------------|
  |                                                                           |
  |Guitar two (Over second time)                                              |
E-|-------------------------------------------------------------------20b-----|
B-|--------------------------11---13------------------------------------------|
G-|--------------------------13b--15b-----------------------------------------|
D-|---------------------------------------------------------------------------|
A-|---------------------------------------------------------------------------|
E-|---------------------------------------------------------------------------|


            "Don't matter where we sleep, don't matter where we park."
            "Don't matter what you say,   don't matter what you do,    as"
   Guitar one
E-|---------------------------------------------------------------------------|
B-|---------------------------------------------------------------------------|
G-|-----5--------------------------AH---------------------------AH------------|
D-|--3--5--------------------------5~~~-------------------------7~~~----------|
A-|--1--3----3--0--3----------------------------------------------------------|
E-|-------------------3---3--3------------3--3---5--5--5-------------5--5-----|
  |                                                                           |
  |Guitar two (Over second time)                                              |
E-|---rb-20b\-------------------------------------------------------------|
B-|---------------------------------------------------------------------------|
G-|---------------------------------------------------------------------------|
D-|---------------------------------------------------------------------------|
A-|---------------------------------------------------------------------------|
E-|---------------------------------------------------------------------------|
  |                                                                           |
  |Guitar three                                                               |
E-|---------------------------------------------------------------------------|
B-|---------------------------------------------------------------------------|
G-|---------------------------------------------------------------------------|
D-|-------------------5--5--5--5--5--5--5-------7--7--7--7--7--7--7--7--------|
A-|-------------------5--5--5--5--5--5--5-------7--7--7--7--7--7--7--7--------|
E-|-------------------3--3--3--3--3--3--3-------5--5--5--5--5--5--5--5--------|


    "All we need is a  spark, spark,    spark in the dark."
    "long as it is me and you. We got a
  w/Fill two second time
   Guitar one
E-|---------------------------------------------------------------------------|
B-|---------------------------------------------------------------------------|
G-|---------------------------------------------------------------------------|
D-|--3---3--3---3---3--3----5--5--5--5--5--------5----------------------------|
A-|--3---3--3---3---3--3----5--5--5--5--5--------5----------------------------|
E-|--1---1--1---1---1--1----3--3--3--3--3--------3----------------------------|

  Fill two
E-|--------------------------------------------------|
B-|-------------------------------------13b~~~~~~~~--|
G-|--------------------------------------------------|
D-|-----------8~~~-----------------------------------|
A-|--------------------------------------------------|
E-|--6--6--6-----------------------------------------|


    "Spark in  the dark.                 Just a little  spark in the dark."
   Guitar one
E-|---------------------------------------------------------------------------|
B-|---------------------------------------------------------------------------|
G-|---------------------------------------------------------------------------|
D-|---------3--3-----------------------0--0------------------3--3b------------|
A-|--5p4h5---------5--5---0--0---1--1--------0--0--3--5p4h5-----------5--5----|
E-|---------------------------------------------------------------------------|
  |                                                                           |
  |Guitar two                                                                 |
E-|--------------------------12-----------------------------------------12----|
B-|---------------------------------13-------------------13b-rb-b---------|
G-|-------------------------------------12--10~~~~~~~-------------------------|
D-|---------------------------------------------------------------------------|
A-|---------------------------------------------------------------------------|
E-|---------------------------------------------------------------------------|


                              "Oh, come..." (Go to Verse two)
   Guitar one
E-|---------------------------------------------------------------------------|
B-|---------------------------------------------------------------------------|
G-|---------------------------------------------------------------------------|
D-|--------------0--0------------------3--3-----------------------------------|
A-|--0--0--1--1--------0--0--3--5p4h5--------5--5--0--0-----------------------|
E-|---------------------------------------------------------------------------|
  |                                                                           |
  |Guitar two                                                                 |
E-|---13--15--13-15b-------(15)---rb-----------------15b----------------------|
B-|---------------------------------------------------------------------------|
G-|---------------------------------------------------------------------------|
D-|---------------------------------------------------------------------------|
A-|---------------------------------------------------------------------------|
E-|---------------------------------------------------------------------------|


   Guitar one
E-|---------------------------------------------------------------------------|
B-|---------------------------------------------------------------------------|
G-|---------------------------------------------------------------------------|
D-|--------0--0----------------------3--3--------------------0--0-------------|
A-|--1--1--------0--0---0--3--5---5--------5--5--0--0--1--1--------3----------|
E-|---------------------------------------------------------------------------|
  |                                                                           |
  |Guitar two                                                                 |
E-|--15--13--12----12-----------------x/--------------------------------------|
B-|-------------13----13------------------11--13-------15--17-------17-20-17--|
G-|----------------------12---14\5----------------17b---------17-19-----------|
D-|---------------------------------------------------------------------------|
A-|---------------------------------------------------------------------------|
E-|---------------------------------------------------------------------------|


                                           "Ah, spark in the dark,
   Guitar one
E-|---------------------------------------------------------------------------|
B-|---------------------------------------------------------------------------|
G-|-----------------------------------------5---------------------------------|
D-|--------2----------------7--7--7--7--7---5---------5--5--------------------|
A-|----3-------------1------7--7--7--7--7---3---7--7--------7--7--------------|
E-|-------------------------5--5--5--5--5-------------------------7--7--------|
  |                                                                           |
  |Guitar two                                                                 |
E-|--------17----18-17-20-----------------------------------------------------|
B-|--18-20----20------------17------------------------------------------------|
G-|-------------------------19b-----------------------------------------------|
D-|---------------------------------------------------------------------------|
A-|---------------------------------------------------------------------------|
E-|---------------------------------------------------------------------------|


          "just a little spark in the dark.
   Guitar one
E-|---------------------------------------------------------------------------|
B-|---------------------------------------------------------------------------|
G-|--5-----7--------------------------------------------5-------7-------------|
D-|--5-----7-------------------5--5---------------------5-------7-------------|
A-|--3-----5-------------7--7---------7---7-------------3-------5-------------|
E-|------------------------------------------7--7-----------------------------|
  |                                                                           |
  |Guitar two                                                                 |
E-|-----------------------------------17b--------------17--17b\-------|
B-|--13---15------------------------------------------------------------------|
G-|--15b--17b-----------------------------------------------------------------|
D-|---------------------------------------------------------------------------|
A-|---------------------------------------------------------------------------|
E-|---------------------------------------------------------------------------|


    "Don't matter where we sleep,       don't matter where we park.    All
    "No matter what you say,            no matter what you do,         as
   Guitar one
E-|---------------------------------------------------------------------------|
B-|---------------------------------------------------------------------------|
G-|---------------------------------------------------------------------------|
D-|---------7---7---7---7---7---7---7---7-----9---9---9---9---9--9--9--9------|
A-|---------7---7---7---7---7---7---7---7-----9---9---9---9---9--9--9--9------|
E-|---------5---5---5---5---5---5---5---5-----7---7---7---7---7--7--7--7------|
  |                                                                           |
  |Guitar two                                                                 |
E-|---------------------------------------------------------------------------|
B-|---------------------------------------------------------------------------|
G-|---------------------AH------------------------------------AH--------------|
D-|---------------------7~~~----------------------------------9~~~------------|
A-|---------------------------------------------------------------------------|
E-|---------5---------------------------3h5--7-------------------------7------|


       "we    need is a spark, spark, spark in the dark.
    "long as it is me and you, we got a
   Guitar one
E-|---------------------------------------------------------------------------|
B-|---------------------------------------------------------------------------|
G-|--5--5--5--5--5--5--5--5----7--7--7--7--7--7--7--7-------------------------|
D-|--5--5--5--5--5--5--5--5----7--7--7--7--7--7--7--7-------------------------|
A-|--3--3--3--3--3--3--3--3----5--5--5--5--5--5--5--5-------------------------|
E-|---------------------------------------------------------------------------|
  |                                                                           |
  |Guitar two                                                                 |
E-|---------------------------------------------------------------------------|
B-|---------------------------------------------------------------------------|
G-|-----------AH--------------------------------------------------------------|
D-|-----------10~~~-----------------------------------------------------------|
A-|---------------------------------------------------------------------------|
E-|--8------------------------------------------------------------------------|


    "Spark in the dark,      just,    just a      little spark in the dark.
   Guitar one
E-|---------------------------------------------------------------------------|
B-|---------------------------------------------------------------------------|
G-|---------------------------------------------------------------------------|
D-|--------5--5------------------------------------------5--5-----------------|
A-|--7--7--------7--7--------------7--7--------5--7p6h7--------7--7-----------|
E-|--------------------7--7--8--8--------7--7------------------------7--7-----|
  |                                                                           |
  |Guitar two                                                                 |
E-|------------------------------------T--------------------------------------|
B-|-----------------------12-13-------12\/-\/---------------------------------|
G-|-----------------------------12-14-----------------------------------------|
D-|---------------------------------------------------------------------------|
A-|---------------------------------------------------------------------------|
E-|---------------------------------------------------------------------------|


           "Just a little...."
   Guitar one
E-|---------------------------------------------------------------------------|
B-|---------------------------------------------------------------------------|
G-|---------------------------------------------------------------------------|
D-|---------------------------------------------------------------------------|
A-|--------7--7--------5--7---------------------------------------------------|
E-|--8--8--------7--7---------------------------------------------------------|
  |                                                                           |
  |Guitar two                                                                 |
E-|---------------------------------------------------------------------------|
B-|--(12)\/-------------------------------------------------------------------|
G-|---------------------------------------------------------------------------|
D-|---------------------------------------------------------------------------|
A-|---------------------------------------------------------------------------|
E-|---------------------------------------------------------------------------|





Comments


Popular Alice Cooper tabs & chords
Saga Of Jesse Jane Bass Tabs
Hes Back The Man Behind The Mask Chords
Die For You (Intro) Tabs
I Love The Dead Tabs
I'm Your Gunnnn Tabs
Sun Arise Tabs
Wake The Dead Tabs
Burning Our Bed Ukulele
Ill Bite Your Face Off Ukulele
Steven Ukulele


Song lyrics



↑ Back to top | Tablatures and chords are parodies/interpretations of the original songs. You may use it for private study, scholarship, research or language learning purposes only
© 2014 AZChords.com Contact us | Privacy policy | DMCA | Add/correct tabs | Request tabs | Top 50 tabs