>
 >
School's Out 2

School's Out 2 Bass Tabs

Alice Cooper - School's Out 2 chords, tabs, tablatures, lyrics

Guitar lessons | Add/correct | Request | Top 50 tabs Artists:  A B C D E F G H I J K L M N O P Q R S T U V W X Y Z 0-9

School's Out 2 Bass Tabs – Alice Cooper

CD, Sheet music, Poster

Do you like School's Out 2? Share with your friends now
Bass TabsBass Tabs v2Bass Tabs v3Tabs
(Repeat this two more times)
G-|----------------------|-----------------------------------------------------|
D-|--9-----------9-------|-----------------------------------------------------|
A-|--7-----------7-------|--7-7-7-7-7-7-7-7-7-7-7-7-7-7-7-7-7-7-7-7-7-7-7-7----|
E-|----------------------|-----------------------------------------------------|


                                           "Well, we got   no choice, (etc.)
G-|-------------------------|--------------------------------------------------|
D-|-------------------------|--------------------------------------------------|
A-|--7-----5--7----------5--|--7-----5--7----------------------5--7---------5--|
E-|-----7----------7--7-----|-----7---------7\-----------0--7---------7--7-----|


                         |Play this twice                        |
G-|-------------------|--|----------------------|----------------|-------------|
D-|-------------------|-------------------------|------------------------------|
A-|--7-----5--7-------|--------5--7----------5--|--7-----5--7------------------|
E-|-----7---------7\--|--0--7----------7--7-----|-----7---------7\-------------|


     "...can't  salute  ya, can't find  a   flag...(etc.)
G-|----------------------------------------------------------|-----------------|
D-|--------10---10----10-------10---10--10------10-----------|-----------------|
A-|----------------------------------------------------------|-----------------|
E-|--------------------------------------------------10--11--|--11---11---11---|


                           Chorus
                          "School's                      out             for
G-|---------------------|------------------------------|-----------------------|
D-|---------------------|------------------------------|-----------------------|
A-|---------------------|-----10----10---10---10-10-10-|-10-----10-10-10-10----|
E-|--11---11---11---11--|------------------------------|-----------------------|


               "summer!" (etc.)                    (Repeat chorus as necessary)
G-|-----------|---------------------------------|------------------------------|
D-|-----------|---------------------------------|------------------------------|
A-|--10-10-10-|-10-----10-10-10--10---10-10-10--|------------------------------|
E-|-----------|---------------------------------|------------------------------|


                                             "No   more..."(etc.)       
G-|----------------------------------------|-----------12---12-----------------|
D-|--6/7----------6/7----(7)\---3----------|--10---10--------------------------|
A-|----------------------------------------|-----------------------------------|
E-|----------------------------------------|-----------------------------------|


G-|----------------12----12--12-|--------------12----12------------------------|
D-|--10----10--10---------------|-10---10--10----------------------------------|
A-|-----------------------------|----------------------------------------------|
E-|-----------------------------|----------------------------------------------|


G-|----------------12----12--12-|--14----14--14--------------------------------|
D-|--10----10--10---------------|----------------12----12--12------------------|
A-|-----------------------------|----------------------------------------------|
E-|-----------------------------|----------------------------------------------|

                                
G-|--14------14---------------|--14------14------------------------------------|
D-|--------------12----12--12-|--------------12----12--12----------------------|
A-|---------------------------|------------------------------------------------|
E-|---------------------------|------------------------------------------------|


                                         (Guitar solo) Repeat seven times
G-|--14-----------------------------||----------7--9-----9--7------------------|
D-|-----------12--12-12-12-12-12-12-||-------9-----------------9--7------------|
A-|---------------------------------||----7------------------------------------|
E-|---------------------------------||-----------------------------------------|


                  "Well, we    got      no    class..."(etc.)
G-|--------7--9----9-----7---------|-------------------------------------------|
D-|-----9-------------------9----7-|-------------------------------------------|
A-|--7-----------------------------|-7-----5--7-----------------5--------------|
E-|--------------------------------|----7-----------------7--7-----------------|


G-|----------------------|------------------------|----------------------------|
D-|----------------------|--------5--7------------|----------------------------|
A-|--7-----5--7\-----7\--|-----7----------------5-|-7-----5--7----------5--7---|
E-|-----7----------------|--0-------------7--7----|----7----------7--7---------|


    "School's                     out           for            summer!(etc.)
G-|------------------------------|----------------------------|----------------|
D-|------------------------------|----------------------------|----------------|
A-|--10---10-10-10-10---10-10-10-|10---10-10-10-10---10-10-10-|10--------------|
E-|------------------------------|----------------------------|----------------|


                               (Repeat this three more times)
G-|-------------------------||---------------------------------||--------------|
D-|-------------------------||---------------------------------||--------------|
A-|--10-10-10-10---10-10-10-||--10----10-10-10-10---10--10--10-||--------------|
E-|-------------------------||---------------------------------||--------------|


G-|---------------------------|------------|------------------|----------------|
D-|---------------------------|------------|------------------|----------------|
A-|--10---10-10-10-10---10-10-|-10---------|--------8---------|-----3----------|
E-|---------------------------|------------|------------------|----------------|

    
     Bridge
G-|--------------12----12-|-------------12----12-|----------------12------12---|
D-|--10------10-----------|--10-----10-----------|--10----10--10---------------|
A-|-----------------------|----------------------|-----------------------------|
E-|-----------------------|----------------------|-----------------------------|


                              (Repeat this two more times)
G-|----------------12-----12-|--14----14------------------|--14-----14---------|
D-|--10----10--10------------|------------12----12--------|--------------------|
A-|--------------------------|----------------------------|---------------12\--|
E-|--------------------------|----------------------------|--------------------|


G-|----------------------|----------------------|------------------------------|
D-|------------5----5----|------------5----5----|---------------5----5---------|
A-|--3---3--3------------|--3---3--3------------|--3--3---3--3-----------------|
E-|--------------------3-|--------------------3-|-----------------------3------|


G-|----------------|--------------------|------------------|----------------5--|
D-|-------------5--|------------7--7----|----------7--7----|----------7--------|
A-|--3----3--3-----|---5-----5----------|--5----5----------|--5----5-----------|
E-|----------------|------------------5-|----------------5-|-------------------|


                                   Chorus (Repeat as necessary)
G-|--7-7-7-7-7-7---------------||----------------------------------------------|
D-|---------------5-5-5-5-8-9--||----------------------------------------------|
A-|----------------------------||--10----10-10-10-10----10-10-10---------------|
E-|----------------------------||----------------------------------------------|


G-|-------------------|--------------------|---------------|-------------------|
D-|-------------------|--------------------|---------------|-------------------|
A-|--10---------------|---8----------(8)\--|--3------------|--(3)--------------|
E-|-------------------|--------------------|---------------|-------------------|





Comments


Popular Alice Cooper tabs & chords
Dead Babies Bass Tabs
Schools Out Bass Tabs
Under My Wheels Bass Tabs
Ill Bite Your Face Off Chords
Dirty Dreams Tabs
Poison Tabs
Schools Out 1 Tabs
Welcome To My Nightmare Tabs
Desperado Ukulele
Every Woman Has A Name Ukulele


Song lyrics



↑ Back to top | Tablatures and chords are parodies/interpretations of the original songs. You may use it for private study, scholarship, research or language learning purposes only
© 2014 AZChords.com Contact us | Privacy policy | DMCA | Add/correct tabs | Request tabs | Top 50 tabs