>
 >
Refrigerator Heaven

Refrigerator Heaven Guitar Tabs

Alice Cooper - Refrigerator Heaven chords, tabs, tablatures, lyrics

Guitar lessons | Add/correct | Request | Top 50 tabs Artists:  A B C D E F G H I J K L M N O P Q R S T U V W X Y Z 0-9

Refrigerator Heaven Guitar Tabs – Alice Cooper

CD, Sheet music, Poster

Do you like Refrigerator Heaven? Share with your friends now
Tabs

NOTES: IN ORDER TO PLAY ALONG WITH THE TRACK!!!!!...you must tune each 
string from standard tuning to a little bit sharp (basically as far
to the right on your tuner as you can before the note/letter changes).

Also During this song one guitar makes an ice sounding effect by 
rest their palm (of their playing/not strumming hand) over the 17th fret,
avoid harmonics. Also at the end of this song I caught Glen Buxton (lead
guitarist) leaning on the whammy bar so the last chord goes slightly out
of tune. Anyways I've tried my best with this song, the first 2 Alice albums
are very very hard to tab cus the band was being very "experimental."

Keys
h - hammer on
p - pull off
~ - vibrato
x - palm mute
/ - slide down the neck (to higher notes)
\ - slide up the neck (to lower notes)
D - strum down
U - strum up

(screams)

Guitars 1 and 2
(palm mute the strings on the 17th frets and strum):
E------x--------x--------x--------x--------x--------x--------x--------x---|
B-----x--------x--------x--------x--------x--------x--------x--------x----|
G----x--------x--------x--------x--------x--------x--------x--------x-----|
D---x--------x--------x--------x--------x--------x--------x--------x------|
A--x--------x--------x--------x--------x--------x--------x--------x-------|
E-x--------x--------x--------x--------x--------x--------x--------x--------|

"I'm freezin', I'm frozen, I'm icicle blue" (So low, low cool)"
Guitar 1 (Glen Buxton)
E----------------------------------------------------------------|
B----------------------------------------------------------------|
G---2----------5----------0----------7-------2-------------------|
D---2----------5----------0----------7------------2--------------|
A------------------------------------------------------3----0----|
E----------------------------------------------------------------|

Guitar 2 (Michael Bruce)
(palm mute the strings on the 17th frets and strum):
E----------x----------x----------x-------------------------------|
B---------x----------x----------x--------------------------------|
G--------x----------x----------x-------------2-------------------|
D-------x----------x----------x-------------------2--------------|
A------------------------------------------------------3----0----|
E----------------------------------------------------------------|

"Cyber,   neurotic,   technicians imbue     (So low, low cool)"
Guitar 1
E-----------------------------------------------------------------|
B-----------------------------------------------------------------|
G-2----------5----------0----------7-------------------------2/---|
D-2----------5----------0----------7--------------------2---------|
A---------------------------------------------0----3--------------|
E-----------------------------------------------------------------|

Guitar 2
(palm mute the strings on the 17th frets and strum):
E--------x----------x----------x----------x-----------------------|
B-------x----------x----------x----------x------------------------|
G------x----------x----------x----------x--------------------2/---|
D-----x----------x----------x----------x-----------------2--------|
A----------------------------------------------0----3-------------|
E-----------------------------------------------------------------|

"I've been admitted to Refrigerator Heaven"
							    D  U  D
E---------------------------------------------------------------------|
B------8----6----6----------8----6----6------4----4------4--4--4------|
G-0----7----7----7-----0----7----7----7------2----2--2---2--2--2--2---|
D-0----0---------------0----0----------------x------------------------|
A--------------------------------------------0------------------------|
E---------------------------------------------------------------------|

			    "Until they discover the cure for cancer"
  	      D  U  D  D
E-----------------------------------------------------------------|
B-4----4--4---4--4--4--4---0----0----0----0----0----0----0----0---|
G-2----2--2---2--2--2--2---1----1----1----1----1----1----1----1---|
D-x------------------------2----2----2----2----2----2----2----2---|
A-0---------------------------------------------------------------|
E-----------------------------------------------------------------|

"I'll  know     Refrigerator Heaven 		So    low, Refrigerator Heaven"
Guitar 1
E----------------------------------------------------------------------------------|
B----------------------------------------------------------------------------------|
G----------------------------------------------------------------------------------|
D-2~~~~2/5----5--7--5--7--5--7/9--7/9--7/9----2~~~~2--2/5----5--5/7--5--7--5--7/9--|
A----------------------------------------------------------------------------------|
E----------------------------------------------------------------------------------|

Solo
Guitars 1 and 2
E----------------------------------------------------------------------|
B----------------------5-----3-----1-----0-----5-----3-----1-----0-----|
G-------------------------0-----0-----0-----0-----0-----0-----0-----0--|
D--------------5-/7----------------------------------------------------|
A-0--3--5--7-----------------------------------------------------------|
E----------------------------------------------------------------------|

E-----------------------------------------|
B-3-----1-----0-----1-----0---3---1---0---|
G----0-----0-----0-----0------------------|
D-----------------------------------------|
A-----------------------------------------|
E-----------------------------------------|

Guitar 1
E-5-----3-----1-----2-----5-----3-----1-----2---------------------------------7---5---4----|
B----0-----0-----0-----0-----0-----0-----0-----0--5p0---7p0---9p0---7p0---5----------------|
G--------------------------------------------------^-----^-----^-----^---------------------|
D-------------------------------------------------2x----2x----2x----2x---------------------|
A------------------------------------------------------------------------------------------|
E------------------------------------------------------------------------------------------|

Guitar 2
E-5-----3-----1-----0-----5-----3-----1-----0-----3-----1-----0-----1-----0---3---1---0----|
B----0-----0-----0-----0-----0-----0-----0-----0-----0-----0-----0-----0-------------------|
G------------------------------------------------------------------------------------------|
D------------------------------------------------------------------------------------------|
A------------------------------------------------------------------------------------------|
E------------------------------------------------------------------------------------------|

Guitars 1 and 2
E----------------------------------------------|
B----------------------------------------------|
G----------------------------------------------|
D-----------------0---3--2~~~---2---3----------|
A-0---3--2---0-------------------------2---3---|
E----------------------------------------------|

"I'm ice packed, I'm hand-stashed, I'm waiting for you
 I'm older	  and younger, 	     preserved in a tomb"
Guitar 1
E------------------------------------------------------------------|
B------------------------------------------------------------------|
G--------------2--------------5--------------0--------------7------| 2x
D--------------2--------------5--------------0--------------7------|
A------------------------------------------------------------------|
E------------------------------------------------------------------|

Guitar 2
(palm mute the strings on the 17th frets and strum):
E-----------------x-------------x---------------x--------------x---|
B----------------x-------------x---------------x--------------x----|
G---------------x-------------x---------------x--------------x-----| 2x
D--------------x-------------x---------------x--------------x------|
A------------------------------------------------------------------|
E------------------------------------------------------------------|

"I've been admitted to Refrigerator Heaven"
Guitar 1
E---------------------------------------13--12---------------13--12--|
B-----------------------8--8--8-----------------10--10---------------|
G---------------------------------------------------------9----------|
D--------------------------------------------------------------------|
A--------------------------------------------------------------------|
E--------------------------------------------------------------------|

Guitar 2
E--------------------------------------------------------------------|
B--------------------------------------------------------------------|
G---0---0---0---0---0---0---0---0---1--1--1--1--1--1--1--1--1--1--1--|
D---0---0---0---0---0---0---0---0---2--2--2--2--2--2--2--2--2--2--2--|
A--------------------------------------------------------------------|
E--------------------------------------------------------------------|

"I feel like I (told you a heart)"
Guitar 1
E----13--12-----12---13--12--13---|
B---------------10---10--10--10---|
G-9----------9--------------------|
D---------------------------------|
A---------------------------------|
E---------------------------------|

Guitar 2
E---------------------------------|
B---------------------------------|
G-1--1--1--1--1--1--1--1--1--1--1-|
D-2--2--2--2--2--2--2--2--2--2--2-|
A---------------------------------|
E---------------------------------|

"I won't get back 'till the sun sets down on the moon."
E------------------------------------------------------------1~~~--|
B-0---0---0---0-----------------------------------------1----------|
G-1---1---1---1--1--------------------------------------2----------|
D-2---2---2---2--2--------------------------------------2----------|
A----------------2-------------------------------------------------|
E------------------------------------------------------------------|

"Won't get back 'till m' sun sets down on the moon"
E------------------------------------0---------------------|
B------------------------------------0------0------1-------|
G------------------------------------1------0------2-------| at the end
D------------------------------------2------0------2-------| Glen accidently
A------------------------------------2-------------0-------| rests on the whammy bar
E----------------------------------------------------------|





Comments


Popular Alice Cooper tabs & chords
Feed My Frankenstein 2 Bass Tabs
Every Woman Has A Name 1 Chords
Generation Landslide Chords
You Look Good In Rags Chords
Brutal Planet Tabs
Die For You Intro 1 Tabs
Might As Well Be On Mars Tabs
This House Is Haunted Tabs
Millie And Billie Ukulele
Something To Remember Me By Ukulele


Song lyrics



↑ Back to top | Tablatures and chords are parodies/interpretations of the original songs. You may use it for private study, scholarship, research or language learning purposes only
© 2014 AZChords.com Contact us | Privacy policy | DMCA | Add/correct tabs | Request tabs | Top 50 tabs