>
 >
Poison

Poison Bass Tabs

Alice Cooper - Poison chords, tabs, tablatures, lyrics

Guitar lessons | Add/correct | Request | Top 50 tabs Artists:  A B C D E F G H I J K L M N O P Q R S T U V W X Y Z 0-9

Poison Bass Tabs – Alice Cooper

CD, Sheet music, Poster

Do you like Poison? Share with your friends now
Bass TabsBass Tabs v2Bass Tabs v3ChordsChords v2Chords v3Chords v4Chords v5Chords v6TabsTabs v2Tabs v3Tabs v4Ukulele
ALICE COOPER
Poison



                                                                    
G||--------------------|-------------------||----------------------|
D||--0--0--------------|------------------*||*---------------------|
A||--------------------|------------------*||*--1--------1--1------|
E||--------------------|-------------------||----------------------|


                      3x                                                
----------------------||-----------------------|-----------------------|
--0--------0--0------*||-----------------------|-----------------------|
---------------------*||--1------1-1-1--1------|--1------1-1-1--1------|
----------------------||-----------------------|-----------------------|


                                                              
----------------------|------------------|-------------------|
--0----0--0------0----|------------------|--0----------------|
----------------------|------------------|-------------------|
----------------------|------------------|-------------------|


                                                                                
-------------------|-------------------|-------------------|-------------------|
-------------------|-------------------|-------------------|-------------------|
--1----------------|-------------------|--3----------------|-------------------|
-------------------|--1----------------|-------------------|--3----------------|


                                                                  
-------------------|-------------------|-------------------------|
-------------------|-------------------|--0----0--0--0--0--0--0--|
--6----------------|--1----------------|-------------------------|
-------------------|-------------------|-------------------------|


                                                                         
--------------------------|----------------------|----------------------|
--0--0--0--0--0--0--0h----|----------------------|----------------------|
-----------------------1--|---------6------5--3--|---------8---------5--|
--------------------------|--3-------------------|--6-------------6-----|


                                                                   
---------------------|---------------------|----------------------|
---------------------|---------------------|----------------------|
---------------------|--6------6-----------|---------8------7--5--|
--8------4--------6--|------------6--------|--5-------------------|


                                                                       
-----------------------|----------------------|-----------------------|
-----------------------|----------------------|-----------------------|
---------10---------7--|--5----------------7--|--8----8-------5-------|
--8--------------8-----|---------6------8-----|------------8-----8----|


                                                                          
----------------------|------------------------|-------------------------|
----------------------|---------7--------------|-------------------------|
--5--7--8-------------|--8--10-----------------|--5--7--8----------5-----|
-----------6----------|------------8------9----|-----------6----6-----6--|


                                                      
---------------------------|-------------------------|
---------7-----------------|-------------------------|
--8--10-------------10-----|--5--7--8----------5-----|
------------8----8------8--|-----------6----6-----6--|


                                                      
---------------------------|-------------------------|
---------7-----------------|-------------------------|
--8--10-------------10-----|--5--7--8----------5-----|
------------8----8------8--|-----------6----6-----6--|


                                                                   
---------------------------|-------------------|------------------|
---------7-----------------|-------------------|------------------|
--8--10-------------10-----|-------------------|------------------|
------------8----8------8--|--6----------------|------------------|


                                                                                
-------------------|-------------------|-------------------|-------------------|
-------------------|-------------------|-------------------|-------------------|
-------------------|--5----------------|-------------------|--5----------------|
--6----------------|-------------------|--6----------------|-------------------|


                                                                  
---------------------|---------------------|---------------------|
---------------------|---------------------|---------------------|
---------------------|--5------5--5--------|---------------------|
--6------6--6--------|---------------------|--6------6--6--------|


                                                                      
------------------------|---------------------|----------------------|
------------------------|---------------------|----------------------|
--5------5--5--5--5-----|---------------------|--6------6--6--6------|
---------------------6--|--3------3--3--------|----------------------|


                                                                            
----------------------|-------------------------|--------------------------|
----------------------|--0----0--0--0--0--0--0--|--0--0--0--0--0--0--0h----|
--1------1------1--1--|-------------------------|-----------------------1--|
----------------------|-------------------------|--------------------------|


                                                                    
----------------------|----------------------|---------------------|
----------------------|----------------------|---------------------|
---------6------5--3--|---------8---------5--|---------------------|
--3-------------------|--6-------------6-----|--8------4--------6--|


                                                                     
---------------------|----------------------|-----------------------|
---------------------|----------------------|-----------------------|
--6------6-----------|---------8------7--5--|---------10---------7--|
------------6--------|--5-------------------|--8--------------8-----|


                                                                      
----------------------|-----------------------|----------------------|
----------------------|-----------------------|----------------------|
--5----------------7--|--8----8-------5-------|--5--7--8-------------|
---------6------8-----|------------8-----8----|-----------6----------|


                                                                               
------------------------|-------------------------|---------------------------|
---------7--------------|-------------------------|---------7-----------------|
--8--10-----------------|--5--7--8----------5-----|--8--10-------------10-----|
------------8------9----|-----------6----6-----6--|------------8----8------8--|


                                                                                
-------------------------|---------------------------|-------------------------|
-------------------------|---------7-----------------|-------------------------|
--5--7--8----------5-----|--8--10-------------10-----|--5--7--8----------5-----|
-----------6----6-----6--|------------8----8------8--|-----------6----6-----6--|


                                                                   
---------------------------|-------------------|------------------|
---------7-----------------|-------------------|------------------|
--8--10-------------10-----|-------------------|------------------|
------------8----8------8--|--6----------------|------------------|


                                        
-------------------|
-------------------|
--5----------------|
-------------------|





Comments


Popular Alice Cooper tabs & chords
Dead Babies Bass Tabs
Dirty Diamonds Bass Tabs
Im Eighteen Bass Tabs
Spirits Rebellious Bass Tabs
Don't Blow Your Mind Tabs
I Love The Dead 1 Tabs
Nobody Likes Me Tabs
Spirits Rebellious Intro Tabs
Vengeance Is Mine Intro 1 Tabs
Yeah Yeah Yeah Tabs


Song lyrics



↑ Back to top | Tablatures and chords are parodies/interpretations of the original songs. You may use it for private study, scholarship, research or language learning purposes only
© 2014 AZChords.com Contact us | Privacy policy | DMCA | Add/correct tabs | Request tabs | Top 50 tabs