» » »

Alice Cooper, Only Women Bleed Tabs (ver.3)

Artists:  A B C D E F G H I J K L M N O P Q R S T U V W X Y Z # 

Only Women Bleed Tabs (ver.3)

Alice Cooper Tabs
 Rating:
4/5 (4 votes)
Only Women Bleed lessons Tabs too difficult? Try these video lessons and learn fast
1
                TAB - Ben Stewart-Smith

Intro                                                                last time to %
||:------------|---------------|------------|-----------|------------|-------------|
||:--3---3---3-|--3----3-------|--2---2---2-|--2---2----|--1---1---1-|--1---1------|
||:-----4---4--|-4----4--------|-----2---2--|-2---2-----|-----2---2--|-2---2-------|
||:------------|---------------|------------|-----------|------------|-------------|
||:------------|---------------|------------|-----------|------------|-------------|
||:3-----------|-----------3/5\|3-----------|-----------|3-----------|---------3/5\|

------------|---------------:||
--0---0---0-|--0---0--------:||
-----0---0--|-0---0---------:||
------------|---------------:||
------------|---------------:||
3-----------|---------------:||

Verse
||:------------|---------------|------------|-----------|------------|-------------|
||:--3---3---3-|--3----3-------|--2---2---2-|--2---2----|--1---1---1-|--1---1------|
||:-----4---4--|-4----4--------|-----2---2--|-2---2-----|-----2---2--|-2---2-------|
||:------------|---------------|------------|-----------|------------|-------------|
||:------------|---------------|------------|-----------|------------|-------------|
||:3-----------|-----------3/5\|3-----------|-----------|3-----------|---------3/5\|
   man's got his woman            to take his seed        he's got the power
   she spends her life through    pleasing up her man     she feeds him dinner or
  man makes your hair gray        he's your life's mistake all you're really looking
  He lies right at you            you know you hate this game he slaps you once and 
a
                            2x
------------|---------------:|| 
--------------|-----------|-----------|-------------|
--0---0---0-|--0---0--------:|| 
----------1---|-------1---|----1^0--0-|-------------|
------------|-0---0---------:|| 
----------2---|-------0---|-----------|-------------|
------------|---------------:|| 
------33------|----2------|-----------|-------------|
2---0-------|---------------:|| -------------|-----------|-----------|---------0-1-|
--------3---|---------------:|| 
3-------------|3----------|3----------|3------3-----|
 she's got the need              She cries alone at night too often
 anything she can
for is an even break
while and you live and love in pain 

--------------|------------|------------|0-----------|
---------3----|--------2---|1-----------|1-----------|
---------4----|--------3---|2-----------|0-----------|
------4-------|-----3------|2-----------|0-----------|
2-------------|1-----------|0----2-3-4-|------------|
--------------|------------|------------|------------|
he smokes and drinks and don't come home at all only women bleed (Intro 1x)

%                                  4x
---------||:3----2----|3----0--2--:|| 66--------|6--------------|6----------------|
---------||:0----3----|0----1--3--:|| 88--------|6--------------|8----------------|
---------||:0----2----|0----0--2--:|| 88--------|8--------------|8----------------|
---------||:0----0----|0----2--0--:|| 88--------|8--------------|8----------------|
---------||:x---------|x----3-----:|| 66--------|6--------------|6----------------|
3----3---||:3---------|3----------:|| ---------|---------------|-----------------|
                                     black eyes all of the time  don't spend a dime

5----------------|6-----------|8-----------------|6-----------------------|
6----------------|6-----------|10----------------|6-----------------------|
5----------------|7-----------|8-----------------|7-----------------------|
7----------------|8-----------|10----------------|8-----------------------|
8----------------|8-----------|8-----------------|8-----------------------|
-----------------|6-----------|-------------------|6-----------------------|
ain't it a crime  you  there   down on your knees begging me please  come 
                                                 2x
6------6-----||:3-----5-----3--|------3----5----:|| 3-------------|
8------6-----||:3-----7-----3--|------5----7----:|| 3-------------|
8------7-----||:4-----7-----4--|------5----7----:|| 4-------------|
8------6-----||:5-----7-----5--|------5----7----:|| 5-------------|
6------8-----||:5-----5-----5--|------3----5----:|| 5-------------|
-------6-----||:3-----------3--|-----------------:|| 3-------------|
watch  me       bleed                                 only women bleed

||:------------|---------------|------------|-----------|------------|-------------|
||:--3---3---3-|--3----3-------|--2---2---2-|--2---2----|--1---1---1-|--1---1------|
||:-----4---4--|-4----4--------|-----2---2--|-2---2-----|-----2---2--|-2---2-------|
||:------------|---------------|------------|-----------|------------|-------------|
||:------------|---------------|------------|-----------|------------|-------------|
||:3-----------|-----------3/5\|3-----------|-----------|3-----------|---------3/5\|
               only women bleed            only women bleed          only women 
bleed
1._____________________________
------------|---------------:||  3------------|
--0---0---0-|--0---0--------:||  0------------|
-----0---0--|-0---0---------:||  0------------|
------------|---------------:||  0------------|
------------|---------------:||  x------------|
3-----------|---------------:||  3-----------|
             only women bleed

alice cooper is great...
            
Submit corrections

comments powered by Disqus
↑ Back to top | Alice Cooper Tabs for Only Women Bleed. Lyrics for acoustic guitar and electric guitar. 1 Tablatures and chords are parodies/interpretations of the original songs. You may use it for private study, scholarship, research or language learning purposes only