» » »

No More Mr Nice Guy Bass tabs (ver.2)

Artists:  A B C D E F G H I J K L M N O P Q R S T U V W X Y Z # 

No More Mr Nice Guy Bass tabs (ver.2)

Alice Cooper
Rating:
0/5 (0 votes)

Hard to play? Try these video lessons and learn fast.
                No More Mr. Nice Guy - Alice Cooper

G|-----------------|---------------------------------------------------------|
D|-----------------|---------------------------------------------------------|
A|-----------------|--7/19\--------------------7/19\-------------------------|
E|-----------------|---------------------------------------------------------|

G|-----------------------|-----------------------|---------------------------|
D|-----------------------|--2--2------------0--2-|---------------------------|
A|--2---2--2--x-----0--2-|---------0--2--2-------|--2---2---x--x--------0--2-|
E|---------------2-------|-----------------------|----------------2--2-------|

G|------------------------|------------------------|-------------------------|
D|--2---x--2---4--2-----2-|------------------------|--2---2--2--4--2--4--5---|
A|-------------------4----|--2---2---x--------0--2-|-------------------------|
E|------------------------|-------------2--2-------|-------------------------|

G|------------------------|-----------------------|--------|-----------------|
D|--7---------------------|--6--------------------|--5-----|-----------------|
A|------------------------|-----------------------|--------|-------5---7-----|
E|------------------------|-----------------------|--------|---7-------------|

G|------------------------|-----------------------|--------|-----------------|
D|--7---------------------|-----------------------|--5-----|-----------------|
A|------------------------|--4--------------------|--------|-------5---7-----|
E|------------------------|-----------------------|--------|--7--------------|

     * 
G|---------------------------------|-----------------------------------------|
D|--------------4---4--4-----------|-----------------------------------------|
A|--4----4-----------------6----4--|--2----2-----0-----0--2--4---------------|
E|---------------------------------|----------------2------------------------|
    *Play Pre-chorus w/slight variations ad lib on D.S.

G|-----------------------|------------------------------|--------------------|
D|-----------------------|------------------------------|--4---4---4--4---4--|
A|--5---5--5--0--2--5--7-|--(7)---7---7-7-7-7-7-7-7-7-7-|--------------------|
E|-----------------------|------------------------------|--------------------|

G|-------|-----------------------|-------------------------------------------|
D|-------|-----------------------|-------------------------------------------|
A|--6--4-|--2--2---0-----0--2--4-|--5--5--5--5--0--2--5--7-------------------|
E|-------|------------2----------|-------------------------------------------|

G|------------------------------|--------------------------------------------|
D|------------------------------|---4----4-----------------------------------|
A|--(7)----7--7---5--5-----5--7-|------------5---5------7--7-----5-----5--7--|
E|----------------------7-------|-----------------------------------7--------|

G|-------------------|-------------4/6---|-----------------------------------|
D|--4---4------------|-----4---7---------|--4--4-----------------------------|
A|----------5--5---7-|--7----------------|--------5--5---7-------------------|
E|-------------------|-------------------|-----------------------------------|

G|--------------------|-------------------|--------------4/6-----------------|
D|--------------------|--4---4------------|-----4---7------------------------|
A|--7------5-----5--7-|----------5--5---7-|--7-------------------------------|
E|------------7-------|-------------------|----------------------------------|

G|---------------------14-|-------------------------|-------14--16-----14----|
D|------12h14--12h14------|--14--12---14--12p11-----|--/14-------------------|
A|--12--------------------|----------------------12-|--/12----------0--------|
E|------------------------|-------------------------|------------------------|

G|--16--14-----16--16p14--14-|-----14--14p16--14-----|--16--14----16--16p14--|
D|---------------------------|-----------------------|-----------------------|
A|----------0----------------|--0------------------0-|----------0-----------0|
E|---------------------------|-----------------------|-----------------------|

G|-----14--16/19----18--16-|----14---14--14--14-------|------------4/6-------|
D|-------------------------|----------------------16\-|-----4--7-------------|
A|--0----------------------|--------------------------|--7-------------------|
E|-------------------------|--------------------------|----------------------|

G|----------------------------------|----------------------------------------|
D|----------------------------------|--7--7--7--7--7--7--7--7----------------|
A|----------------------------------|----------------------------------------|
E|----------------------------------|----------------------------------------|

G|-------------------------|-------------------------|-----------------------|
D|--6--6--6--6--6--6--6--6-|--5--5--5--5--5--5--5--5-|------------------5--6-|
A|-------------------------|-------------------------|----------5----7-------|
E|-------------------------|-------------------------|-7--7--7---------------|

G|-------------------------|-------------------------|-----------------------|
D|--7--7--7--7--7--7--7--7-|-------------------------|-5--5--5--5--5--5--5--5|
A|-------------------------|--4--4--4--4--4--4--4--4-|-----------------------|
E|-------------------------|-------------------------|-----------------------|

G|---------------------||----------------------|-----------------------------|
D|---------------------||--4----4--------------|-----------------------------|
A|-----------5----7--7-||-----------5--5--7----|--7---------5-----5--7-------|
E|--7--7--7------------||----------------------|---------------7-------------|

G|------------------|-------------4/6----||------------4/6---|-----------4/6-|
D|--4--4------------|-----4---7----------||-----4--7---------|-----4--7------|
A|---------5--5---7-|--7-----------------||--7---------------|--7------------|
E|------------------|--------------------||------------------|---------------|

G|------------|
D|------------|
A|--7---------|
E|------------|
            
Hard to play? Try these video lessons and learn fast. | Correct




comments powered by Disqus
↑ Back to top | Tablatures and chords are parodies/interpretations of the original songs. You may use it for private study, scholarship, research or language learning purposes only