>
 >
No More Mister Nice Guy 1

No More Mister Nice Guy 1 Guitar Tabs

Alice Cooper - No More Mister Nice Guy 1 chords, tabs, tablatures, lyrics

Guitar lessons | Add/correct | Request | Top 50 tabs Artists:  A B C D E F G H I J K L M N O P Q R S T U V W X Y Z 0-9

No More Mister Nice Guy 1 Guitar Tabs – Alice Cooper

CD, Sheet music, Poster

Do you like No More Mister Nice Guy 1? Share with your friends now
TabsTabs v2
/= slide up   \= slide down   p= pull-off   h= hammer-on   b= bend

  rb= release bend   <>= strike note while already bent   ()= note is carried

  x= mute   ~~= vibrato


  Intro
   Guitar one (Play this four times)
E-|---------------------------------------------------------------------------|
B-|--10--10--8-----8--8-------------------------------------------------------|
G-|---9---9--9-----7--7-----0------7------------------------------------------|
D-|---7---7--7-----7--7--------/9-----9p7p0-----------------------------------|
A-|---0--------(0)------------------------------------------------------------|
E-|---------------------------------------------------------------------------|



   Guitar one
E-|------------------------|-----------------------|--------------------------|
B-|------------------------|-----------------------|--------------------10b---|
G-|--9b---<9>rb--7--10b----|----------(10)---------|--9b--9b--9b-rb--7--------|
D-|------------------------|-----------------------|--------------------------|
A-|------------------------|-----------------------|--------------------------|
E-|------------------------|-----------------------|--------------------------|
  |                                                                           |
  |Guitar two                                                                 |
E-|--7---------------------|-----------------7--7--|--7-----------------------|
B-|--7---------------------|--9--10--10--9---7--7--|--7-----------------------|
G-|--7------------7--7--7--|--9---9---9--9---7--7--|--7------------7--7--7----|
D-|--9---9--7--9--7--7--7--|--9---9---9--9---9--9--|--9---9--7--9--7--7--7----|
A-|--9---9--7--9-----------|--7---7---7--7---9--9--|--9---9--7--9-------------|
E-|--7---------------------|-----------------7--7--|--7-----------------------|
  |                                                                           |
  |Guitar three                                                               |
E-|--7---------------------|-----------------------|--7-----------------------|
B-|--7---------------------|--9--------------------|--7-----------------------|
G-|--7---------------------|--9--------------------|--7-----------------------|
D-|--9---------------------|--9--------------------|--9-----------------------|
A-|------------------------|--7--------------------|--------------------------|
E-|------------------------|-----------------------|--------------------------|


   Guitar one
E-|-----------------------|------------------------|--------------------------|
B-|-------(10)------------|----------------10b-rb--|--------------------------|
G-|-----------------------|--9b--<9>rb--7----------|--9b-rb--7--9b\-----------|
D-|-----------------------|------------------------|--------------------------|
A-|-----------------------|------------------------|--------------------------|
E-|-----------------------|------------------------|--------------------------|
  |                                                                           |
  |Guitar two                                                                 |
E-|-----------------7--7--|--7---------------------|--------------------------|
B-|--9--10--10--9---7--7--|--7---------------------|--9--10--10--9--9--9------|
G-|--9---9---9--9---7--7--|--7------------7--7--7--|--9---9---9--9--9--9------|
D-|--9---9---9--9---9--9--|--9---9--7--9--7--7--7--|--9---9---9--9--9--9------|
A-|--7---7---7--7---9--9--|--9---9--7--9-----------|--7---7---7--7--7--7------|
E-|-----------------7--7--|--7---------------------|--------------------------|
  |                                                                           |
  |Guitar three                                                               |
E-|-----------------------|--7---------------------|--------------------------|
B-|--9--------------------|--7---------------------|--9-----------------------|
G-|--9--------------------|--7---------------------|--9-----------------------|
D-|--9--------------------|--9---------------------|--9-----------------------|
A-|--7--------------------|------------------------|--7-----------------------|
E-|-----------------------|------------------------|--------------------------|


  Verse one
       "I used to be such a sweet, sweet thing until they      got a hold of
   Guitar one
E-|---------------------------------------------------------------------------|
B-|---------------------------------------------------------------------------|
G-|--2-----------------------1------------------------------------------------|
D-|--------------------------------------------------------5------------------|
A-|---------------------------------------------------------------------------|
E-|---------------------------------------------------------------------------|
  |                                                                           |
  |Guitar two                                                                 |
E-|--5-----------------------4-----------------------------3------------------|
B-|--5-----------------------5-----------------------------3------------------|
G-|--6-----------------------6-----------------------------4------------------|
D-|--7-----------------------6-----------------------------5------------------|
A-|--7-----------------------4-----------------------------5------------------|
E-|--5-----------------------------------------------------3------------------|
  |                                                                           |
  |Guitar three                                                               |
E-|---9----------------------9-----------------------------7------------------|
B-|--10----------------------9-----------------------------8------------------|
G-|---9----------------------9-----------------------------7------------------|
D-|--11---------------------11-----------------------------9------------------|
A-|---------------------------------------------------------------------------|
E-|---------------------------------------------------------------------------|


   "me.                        I opened doors  for little old     ladies."
   Guitar one
E-|---------------------------------------------------------------------------|
B-|---------------------------------------------------------------------------|
G-|---4---(4)/7---9b-rb\----2-----------------9b\--------1----(1)/9b\---------|
D-|-----------------------------------------------------------------------5---|
A-|---------------------------------------------------------------------------|
E-|---------------------------------------------------------------------------|
  |                                                                           |
  |Guitar two                                                                 |
E-|---2---------------------5----------------------------4----------------3---|
B-|---3-------7---9---------5----------------------------5----------------3---|
G-|---4-------7---9---------6----------------------------6----------------4---|
D-|---4-------7---9---------7----------------------------6----------------5---|
A-|---2-------5---7---------7----------------------------4----------------5---|
E-|-------------------------5---------------------------------------------3---|
  |                                                                           |
  |Guitar three                                                               |
E-|--7----------------------9----------------------------9----------------7---|
B-|--7--------7---9--------10----------------------------9----------------8---|
G-|--7--------7---9---------9----------------------------9----------------7---|
D-|--9--------7---9--------11---------------------------11----------------9---|
A-|-----------5---7-----------------------------------------------------------|
E-|---------------------------------------------------------------------------|


    "I helped the blind to see.
   Guitar one
E-|---------------------------------------------------------------------------|
B-|---------------------------------------------------------------------------|
G-|---------------------------4-----(4)/7----9\-------------------------------|
D-|---------------------------------------------------------------------------|
A-|---------------------------------------------------------------------------|
E-|---------------------------------------------------------------------------|
  |                                                                           |
  |Guitar two                                                                 |
E-|---------------------------2-----------------------------------------------|
B-|---------------------------3---------7----9--------------------------------|
G-|---------------------------4---------7----9--------------------------------|
D-|---------------------------4---------7----9--------------------------------|
A-|---------------------------2---------5----7--------------------------------|
E-|---------------------------------------------------------------------------|
  |                                                                           |
  |Guitar three                                                               |
E-|---------------------------7-----------------------------------------------|
B-|---------------------------7---------7----9--------------------------------|
G-|---------------------------7---------7----9--------------------------------|
D-|---------------------------9---------7----9--------------------------------|
A-|-------------------------------------5----7--------------------------------|
E-|---------------------------------------------------------------------------|


  Pre-chorus
      "I  got no friends  'cause they read the papers.         They can't be
   Guitar one
E-|--3----3--------------3-------2---------2-----2----------------------------|
B-|--3----3--------------3-------3---------3-----3------/7--7-------------7---|
G-|--3----3--------------3-------4---------4-----4------/7--7-------------7---|
D-|--4----4--------------4-------4---------4-----4------/7--7-------------7---|
A-|--4----4--------------4-------2---------2-----2------/5--5-------------5---|
E-|--2----2--------------2----------------------------------------------------|
  |                                                                           |
  |Guitar two                                                                 |
E-|-------9--------------9-----------------7-----7----------------------------|
B-|------10-------------10-----------------7-----7----------7-------------7---|
G-|------11-------------11-----------------7-----7----------7-------------7---|
D-|---------------------------------------------------------7-------------7---|
A-|---------------------------------------------------------------------------|
E-|---------------------------------------------------------------------------|


    "seen               with me.     And I'm getting real shot down and  I'm
   Guitar one
E-|------------------------------2--2--------2-------2--------2-----2---------|
B-|--9-----9--9--10--9-----------2--2--------2-------3--------3-----3---/7----|
G-|--9-----9--9---9--9-----------2--2--------2-------4--------4-----4---/7----|
D-|--9-----9--9---9--9-----------4--4--------4-------4--------4-----4---/7----|
A-|--7-----7--7---7--7-----------4--4--------4-------2--------2-----2---/5----|
E-|------------------------------2--2--------2--------------------------------|
  |                                                                           |
  |Guitar two                                                                 |
E-|----------------------------------9--------9---------------7-----7---------|
B-|---------------------------------10-------10---------------7-----7---------|
G-|------------9--11--9-------------11-------11---------------7-----7---------|
D-|------9h11-----------------------------------------------------------------|
A-|---------------------------------------------------------------------------|
E-|---------------------------------------------------------------------------|


       "feelin'  mean."
   Guitar one
E-|---------------------------------------------------------------------------|
B-|--7-------7---9----------------7-------------------------------------------|
G-|--7-------7---9----------------7-------------------------------------------|
D-|--7-------7---9----------------7-------------------------------------------|
A-|--5-------5---7----------------5-------------------------------------------|
E-|---------------------------------------------------------------------------|
  |                                                                           |
  |Guitar two                                                                 |
E-|---------------------------------------------------------------------------|
B-|--7-------7-----------------9-------7--------------------------------------|
G-|--7-------7-----------------9-------7--------------------------------------|
D-|--7-------7-----------------9-------7--------------------------------------|
A-|---------------------------------------------------------------------------|
E-|---------------------------------------------------------------------------|
  |                                                                           |
  |Guitar three                                                               |
E-|---------------------------------------------------------------------------|
B-|-----------------------------------12b~~-----------------------------------|
G-|----------------------------9--11------------------------------------------|
D-|----------------------9h11-------------------------------------------------|
A-|---------------------------------------------------------------------------|
E-|---------------------------------------------------------------------------|


  Chorus
     (F#m)          (E5)             (D5)       (F#m)
    "No more     Mr. Nice    Guy.                No  more   Mister  Clea_____

E-|---------------------------------------------------------------------------|
B-|-------------------------------------12b-----------------------------------|
G-|---------------------------------------------------------------------------|
D-|---------------------------------------------------------------------------|
A-|---------------------------------------------------------------------------|
E-|---------------------------------------------------------------------------|
  |                                                                           |
  |Guitars one and two                                                        |
E-|------------9---9---------------------------------------9--9---------------|
B-|--10-------10---9-----------------------------10-------10--9---------------|
G-|--11--11-----------11--9---------7------------11--11----------11--9--------|
D-|------11-----------11--9---------7----------------11----------11--9--------|
A-|---------------------------------------------------------------------------|
E-|---------------------------------------------------------------------------|


    "__________n.    No more Mr. Nice Guy. They say, "He's sick. He's obscene."
   Guitar three
E-|---------------|-----------------------------------------------------------|
B-|---------------|--12b------------------------------------------------------|
G-|---------------|-----------------------------------------------------------|
D-|---------------|-----------------------------------------------------------|
A-|---------------|-----------------------------------------------------------|
E-|---------------|-----------------------------------------------------------|
  |                                                                           |
  |Guitars one and two (Repeat Chorus Rhythm fig.)                            |
E-|------------9--|-----------------------------------------------------------|
B-|-------10--10--|-----------------------------------------------------------|
G-|--11----9------|-----------------------------------------------------------|
D-|--11-----------|-----------------------------------------------------------|
A-|---------------|-----------------------------------------------------------|
E-|---------------|-----------------------------------------------------------|



   Repeat Intro four times w/Fills one and two
   Fill one                          Fill two
E-|---------------------------------|-----------------------------------------|
B-|---------------------------------|--17b--17b-rb----------------------------|
G-|--------------18b--18b--18-------|---------------16b-rb--------------------|
D-|------17--19---------------------|-----------------------16~~~\------------|
A-|--19-----------------------------|-----------------------------------------|
E-|---------------------------------|-----------------------------------------|


  Repeat Pre-chorus Rhythm
    "I got no friends 'cause they read the papers. They can't be seen
    "                  with me. And I'm feeling real shot down and I'm, I'm
E-|---------------------------------------------------------------------------|
B-|---------------12b---------------------------------------------------------|
G-|--------9--11--------------------------------------------------------------|
D-|--9h11---------------------------------------------------------------------|
A-|---------------------------------------------------------------------------|
E-|---------------------------------------------------------------------------|


   "getting mean."
E-|----------------------------------|
B-|------------------------10--------|
G-|---------------------9------------|
D-|---------------9h11---------9b~~--|
A-|----------------------------------|
E-|----------------------------------|


Repeat Chorus.


     "My dog       bit me on the leg   today.    My cat    clawed my eyes."
   Guitar one
E-|-------------9--------------------------9-------------7--------------------|
B-|---------10--------------------------9-------------8-----------------------|
G-|------9---------------------------9-------------7--------------------------|
D-|--11--------------------------11-------------9-----------------------------|
A-|---------------------------------------------------------------------------|
E-|---------------------------------------------------------------------------|
  |                                                                           |
  |Guitar two                                                                 |
E-|--5---------------------------4--------------3-----------------------------|
B-|--5---------------------------5--------------3-----------------------------|
G-|--6---------------------------6--------------4-----------------------------|
D-|--7---------------------------6--------------5-----------------------------|
A-|--7---------------------------4--------------5-----------------------------|
E-|--5------------------------------------------3-----------------------------|


                "My mom's     been thrown out of her social circle.
   Guitar one
E-|--7--------------------9------------------------------------9--------------|
B-|--7----9-----------10------------------------------------9-----------------|
G-|--7----9--------9-------------------------------------9--------------------|
D-|--9----9----11------------------------------------11-----------------------|
A-|-------7-------------------------------------------------------------------|
E-|---------------------------------------------------------------------------|
  |                                                                           |
  |Guitar two                                                                 |
E-|--2----0----5-------------------------------------4------------------------|
B-|--3----0----5-------------------------------------5------------------------|
G-|--4----1----6-------------------------------------6------------------------|
D-|--4----2----7-------------------------------------6------------------------|
A-|--2----2----7-------------------------------------4------------------------|
E-|-------0----5--------------------------------------------------------------|


     "and dad has to hide.
   Guitar one
E-|-----------7------------7--------------------------------------------------|
B-|--------8---------------7----9---------------------------------------------|
G-|-----7------------------7----9----------------9b-rb\-----------------------|
D-|--9---------------------9----9---------------------------------------------|
A-|-----------------------------7---------------------------------------------|
E-|---------------------------------------------------------------------------|
  |                                                                           |
  |Guitar two                                                                 |
E-|--3---------------------2----0---------------------------------------------|
B-|--3---------------------3----0---------------------------------------------|
G-|--4---------------------4----1---------------------------------------------|
D-|--5---------------------4----2---------------------------------------------|
A-|--5---------------------2----2---------------------------------------------|
E-|--3--------------------------0---------------------------------------------|


   Background chords on top of staff
    A                           C#m             G               Bm   D  E
       "I went to church        incognito.      When everybody rose
   Guitar one
E-|---------------------------------------------------------------------------|
B-|---------------------------------------------------------------------------|
G-|--2------------------9b-rb\--1------(1)/9b\------------------4---/7--9b\---|
D-|---------------------------------------------5-----------------------------|
A-|---------------------------------------------------------------------------|
E-|---------------------------------------------------------------------------|


     A                             C#m                 G
       "the Rev. Smith, he,     he recognized     me     and punched me in
   Guitar one
E-|---------------------------------------------------------------------------|
B-|---------------------------------------------------------------------------|
G-|--2---------------------9b\-----1---------(1)/9b\--------------------------|
D-|----------------------------------------------------5----------------------|
A-|---------------------------------------------------------------------------|
E-|---------------------------------------------------------------------------|


        Bm           D  E
     "nose.          He said,
   Guitar one
E-|-----------------------------|
B-|-----------------------------|
G-|-----4--------(4)/7--9-------|
D-|-----------------------------|
A-|-----------------------------|
E-|-----------------------------|



Repeat Chorus



  End
   Guitars one and two                                |Guitar one's chord here
E-|----------------9----x--x------------------9-------|-9---------------------|
B-|----------10---10----x--x------------10---10------2|10---------------------|
G-|--9--11----9-----------------9--11----9-----------2|-9---------------------|
D-|--9--11----------------------9--11----------------2|11---------------------|
A-|--------------------------------------------------0|-----------------------|
E-|---------------------------------------------------------------------------|





Comments


Popular Alice Cooper tabs & chords
House Of Fire Bass Tabs
Woman Of Mass Distraction Bass Tabs
Clones Chords
I Never Cry Chords
Lost In America Chords
Dead Babies 1 Tabs
My Stars 2 Tabs
Somewhere In The Jungle Tabs
Triggerman Tabs
Something To Remember Me By Ukulele


Song lyrics



↑ Back to top | Tablatures and chords are parodies/interpretations of the original songs. You may use it for private study, scholarship, research or language learning purposes only
© 2014 AZChords.com Contact us | Privacy policy | DMCA | Add/correct tabs | Request tabs | Top 50 tabs