» » »

My Stars Tabs (ver.3)

Artists:  A B C D E F G H I J K L M N O P Q R S T U V W X Y Z # 

My Stars Tabs (ver.3)

Alice Cooper
Rating:
0/5 (0 votes)

Hard to play? Try these video lessons and learn fast.
                
I'm back with probably one of my greatest tabs yet. This tab has almost every bit of the 
in it. The 2 solos are not included, but they are played in pattern 4 of the minor 
blues scales. This is one of my favorite Alice Cooper songs. If you have any

Keys
b = bend
r = release
/ = slide down the neck
\ = slide up the neck
#x = play that pattern that many number of times
h = hammer-on
p = pull-off

Rhythm Guitar (Michael Bruce):
E-----------------------|
B-----------------------|
G-----------------------| 16x
D-----7--7--7--------5--|
A--------------5-6-7----|
E-5---------------------|

At 0:11 lead guitar (Glen) comes in while the rhythm (Mike) continues playing the intro.
Lead Guitar (Glen Buxton):
E-----------------------------------15b17r15-12h15p12h15p12h15p12h15…-|
B----13-15-15b17r15-13--------13-15-----------------------------------|
G-14-------------------14--14-----------------------------------------|
D---------------------------------------------------------------------|
A---------------------------------------------------------------------|
E---------------------------------------------------------------------|

E---------------------------------------15b17r15-12-15—12h15p12h15p12…|
B-15b17r15-13-15-13-15-13---------13-15-------------------------------|
G--------------------------14--14-------------------------------------|
D---------------------------------------------------------------------|
A---------------------------------------------------------------------|
E---------------------------------------------------------------------|

E---------------------------------------------------------------------|
B-15b17r15-13-15-13----15b17r15-13-15-13----15b17r15-13-15-13-15b17r15|
G-------------------14-------------------14---------------------------|
D---------------------------------------------------------------------|
A---------------------------------------------------------------------|
E---------------------------------------------------------------------|

E-----15b17r15-12-15-12----17b19--------------------------------------|
B-13--------------------15--------------------------------------------|
G---------------------------------------------------------------------|
D---------------------------------------------------------------------|
A---------------------------------------------------------------------|
E---------------------------------------------------------------------|

"My stars, so far, no one’s callin’ me home
Space brain, vagabond, living on my own"
  E E  E E E   C C  C C C   D D  D D D
E-----------------------------------------------------------------|
B-----------------------------------------------------------------|
G-9-9--9-9-9\--5-5--5-5-5\--7-7--7-7-7\---3--3/5--7--9--11-12-----| 3x
D-9-9--9-9-9\--5-5--5-5-5\--7-7--7-7-7\---3--3/5--7--9--11-12-----|
A-7-7--7-7-7\--3-3--3-3-3\--5-5--5-5-5\---1--1/3--5--7---9-10-----|
E-----------------------------------------------------------------|
The first time the above pattern
is played the lead guitar joins
in on the first C chord

"Come all ye faithful, you know all you people should come to me
I’ll make your arms work and I’ll make your legs I’ll make you see"
E-12-10----10----------------------------------/14-------/19------|
B-------13----13-12-13-12-10-12-10-----------------12--------17---|
G----------------------------------12-10-12-9---------------------| 2x
D-----------------------------------------------------------------|
A-----------------------------------------------------------------|
E-----------------------------------------------------------------|

"Ladada dadada dadada dadada da da dum"
E-12-10----10------------------------------------10---10---|
B-------13----13-12-13-12-10-12-10---------------10---10---|
G----------------------------------12-10-12-9---b12--b12---|
D----------------------------------------------------------|
A----------------------------------------------------------|
E----------------------------------------------------------|

During the solo:
Rhythm Guitar:
E--------------------------------------------|
B--------------------------------------------|
G--------------------------------------------| 7x
D--------------------------------------------|
A-----------5-5---5---5h7--------------------|
E-5-5-8p5h8-----8---8------5-5-8p5h8--1-3-5--|

After the first solo:

"Well I swear by the air, I’ll be made to breathe
You'll pay very dear for this banishing deed
The power alone stored in my little hand
Could melt the Eiffel Tower
Turn the Sphinx into sand"
Lead Guitar:
E-15b17r15------------|
B----------13----13---|
G-------------14------| 9x
D---------------------|
A---------------------|
E---------------------|

Rhythm Guitar:
E-----------------------|
B-----------------------|
G-----------------------| 8x
D-----7--7--7--------5--|
A--------------5-6-7----|
E-5---------------------|


"Oh no, thar she blows, spreadin’ crazy news
All night, cannonball, loves to light the fuse"
  E E  E E E   C C  C C C   D D  D D D
E-----------------------------------------------------------------|
B-----------------------------------------------------------------|
G-9-9--9-9-9\--5-5--5-5-5\--7-7--7-7-7\---3--3/5--7--9--11-12-----| 3x
D-9-9--9-9-9\--5-5--5-5-5\--7-7--7-7-7\---3--3/5--7--9--11-12-----|
A-7-7--7-7-7\--3-3--3-3-3\--5-5--5-5-5\---1--1/3--5--7---9-10-----|
E-----------------------------------------------------------------|

"And everyone blows up and nobody grows up to fill Dad's shoes
But that doesn't matter cus no little boys really wanted to"
E-12-10----10----------------------------------/14-------/19------|
B-------13----13-12-13-12-10-12-10-----------------12--------17---|
G----------------------------------12-10-12-9---------------------| 2x
D-----------------------------------------------------------------|
A-----------------------------------------------------------------|
E-----------------------------------------------------------------|

"Ladada dadada dadada dadada da da dum"
E-12-10----10------------------------------------10---10---|
B-------13----13-12-13-12-10-12-10---------------10---10---|
G----------------------------------12-10-12-9---b12--b12---|
D----------------------------------------------------------|
A----------------------------------------------------------|
E----------------------------------------------------------|

After the second solo:
"I stared at the squall line
I stared at the fault line
I see a funnel black there
I think I see a crack there
Landscapes alive
And it's movin my feet
All I need's a Holocaust
To make my day complete"
Lead Guitar:
E-15b17r15------------|
B----------13----13---|
G-------------14------| 9x
D---------------------|
A---------------------|
E---------------------|

Rhythm Guitar:
E-----------------------|
B-----------------------|
G-----------------------|
D-----7--7--7--------5--|
A--------------5-6-7----|
E-5---------------------|

Towards the end:
Lead Guitar:
E---------------------|
B---------------------|
G-----------6-6h7p6---|
D-7--5--7-------------|
A---------------------|
E---------------------|

Rhythm Guitar:
E-----------------------|
B-----------------------|
G-----------------------|
D-----7--7--7--------5--|
A--------------5-6-7----|
E-5---------------------|

As the song fades out play (many times):
Lead Guitar:
E-----17-----17-----17-----17-----17-----17----|
B-b20----b20----b20----b20----b20----b20-------|
G----------------------------------------------|
D----------------------------------------------|
A----------------------------------------------|
E----------------------------------------------|
            
Hard to play? Try these video lessons and learn fast. | Correct




comments powered by Disqus
↑ Back to top | Tablatures and chords are parodies/interpretations of the original songs. You may use it for private study, scholarship, research or language learning purposes only