>
 >
Loves A Loaded Gun

Loves A Loaded Gun Guitar Tabs

Alice Cooper - Loves A Loaded Gun chords, tabs, tablatures, lyrics

Guitar lessons | Add/correct | Request | Top 50 tabs Artists:  A B C D E F G H I J K L M N O P Q R S T U V W X Y Z 0-9

Loves A Loaded Gun Guitar Tabs – Alice Cooper

CD, Sheet music, Poster

Do you like Loves A Loaded Gun? Share with your friends now
Bass TabsTabsUkulele
-----------------------------------------------------------------------------
                       Alice Cooper - Love's A Loaded Gun
-----------------------------------------------------------------------------

Tuning: standard(E;A;D;G;B;e)

Chords used:
   Gm  F  C  D#  F/A
E||-------0---------------|
B||-3--1--1--4---6--------|
G||-3--2--0--3---5--------|
D||-5--3--2--5---7--------|
A||-5--3--3--6---8--------|
E||-3--1------------------|


*** Legend ***
/   slide up
\   slide down
h   hammer-on
p   pull-off
~   vibrato
PH  pinch harmonic
x   mute note
b*  bend to required pith (1, 0.5, 0.25)
r   release bend


Intro:
                 Gm           F             C
E||-------------|--------------------------|--------------------------------|
B||-------------|--------------------------|--------------------------------|
G||-------------|-3----------------3-3-5-3-|-5b1----5b1r5h3h5p3-7-3b1~------|
D||---------5-5-|----5-5~~-----------------|--------------------------5-5-5-|
A||-------------|--------------------------|--------------------------------|
E||-------------|--------------------------|--------------------------------|
    Gm          F           C
E||---------------3--------|--------------------------|
B||-------------3---6-3----|----5b0.5r----------------|
G||-3-------5b1--------5b1-|r5--5b0.5r----------------|
D||---5-5~-----------------|--------------------------|
A||------------------------|--------------------------|
E||------------------------|--------------------------|

Verse 1
Verse starts like that (two guitars):
Guitar1
E||-------3----------1-----|-------0------------0------|
B||-------3----------1-----|-------1------------1------|
G||-------3----------2-----|-------0-------0-0--0--x-0-|
D||-------5----------3-----|----2--2--2----2-2--2--x-2-|
A||----5-----5----3-----3--|-3-----3-------3-3--3--x-3-|
E||-3-----------1----------|---------------------------|
Guitar 2
E||------------------------|--------------------0------|
B||------------------1-----|-------1------------1------|
G||-------3----------2-----|-------0------------0--x-0-|
D||-------5----------3-----|----2--2--2---------2--x-2-|
A||----5--5--5----3--3--3--|-3-----3------------3--x-3-|
E||-3-----3-----1----1-----|-------0-------------------|
 ...Somebody saw you at the station...
   
Guitar 1
E||-------3----------1-----|-0-----0--0-------1-1-0-0-|
B||-------3----------1-----|-1-----1--1-------1-1-1-1-|
G||-------3----------2-----|-0-----0--0-------0-0-0-0-|
D||-------5----------3-----|-2--2--2--2-------2-2-2-2-|
A||----5-----5----3-----3--|-3-----3--3-------3-3-3-3-|
E||-3-----------1----------|--------------------------|
Guitar 2
E||------------------------|-0-----0--0---1-1-1-0-0-0-|
B||------------------1-----|-1-----1--1---1-1-1-1-1-1-|
G||-------3----------2-----|-0-----0--0---0-0-0-0-0-0-|
D||-------5----------3-----|-2--2--2--2---------------|
A||----5--5--5----3--3--3--|-3-----3--3---------------|
E||-3-----3-----1----1-----|--------------------------|
 ...You had your suitcase in your hand...

Guitar 1
E||-------3--------------------|-------0--0-------0-0-0-0-|
B||-------3-------------1------|-------1--1-------1-1-1-1-|
G||-------3--3-3--------2------|-------0--0-------0-0-0-0-|
D||-------5--5-5--------3--3-3-|----2--2--2-------2-2-2-2-|
A||----5-----5-5-----3--3--3-3-|-3-----3--3-------3-3-3-3-|
E||-3--------3-3--1-----1--1-1-|--------------------------|
Guitar 2
E||----------------------------|------------0-0---0-0-x-x-|
B||---------------------1------|------------1-1---1-1-x-x-|
G||-------3--x-3--------2------|------------0-0-0-0-0-x-x-|
D||-------5--x-5--------3--3-3-|----2-------2-2-2-2-2-x-x-|
A||----5--5--x-5-----3--3--3-3-|-3--------------3---------|
E||-3-----3--x-3--1-----1--1-1-|--------------------------|
   ...You didn't give no information...

D#             F/A          Gm
You walked off with another man
Gm          F               C
I'm always standing in the shadows, baby
Gm            F             C
I watched you give yourself away
Gm            F              C
You take them home into your bedroom
D#      F/A          Gm
You had another busy day (here goes guitar 2 w/dist.)

Dist. guitar chords:
Guitar 2
E||--------------------------|
B||--------------------------|
G||-/8----x-x-10-------------|
D||-/8----x-x-10-----5-------|
A||-/6----x-x-8------5-------|
E||------------------3-------|

Parts which are played within the Verse 1:

E||------13-----------||--------------------------||-------------|
B||-13b1----13r11-----||---------------11---------||-------------|
G||---------------12~-||------10----------12~-----||-------------|
D||-------------------||---12----12-12------------||--10b1r8-----|
A||-------------------||--------------------------||---------10~-|
E||-------------------||--------------------------||-------------|


*****************************************************************************
Bridge:

D#                        F/A
I tried to look the other way and fake it
D#        
You push me to the limits
F/A
I can't take it

Dist. guitar chords:
Guitar 2
E||--------------------------|
B||--------------------------|
G||-8--/10--\8--/10----------|
D||-8--/10--\8--/10----------|
A||-6--/8---\6--/8-----------|
E||--------------------------|

*****************************************************************************
Chorus 1:

Guitar 2
E||------------------------------------------------|
B||------------------------------------------------|
G||-----5---8-----------5---8--x-x-3---------------|
D||-5---5---8---3---5---5---8--x-x-3--x-x-3--x-x-5-|
A||-5---3---6---3---5---3---6--x-x-1--x-x-3--x-x-5-|
E||-3-----------1---3-----------------x-x-1--x-x-5-| 
(repeat 2 times)

chorus ending:

Guitar 1
E||-18----18----18---18---18---18---|
B||-15b1--15b1--15b1-15b1-15b1-15b1-|
G||---------------------------------|
D||---------------------------------|
A||---------------------------------|
E||---------------------------------|

Guitar 2
E||--------------------------------------------|
B||--------------------------------------------|
G||--------------------------------------------|
D||-----------------------------------3---3-5--|
A||---------------------------3---3-5---5------|
E||-------------------------6---6--------------|

*****************************************************************************
Verse 2:

Gm              F           C
Someday they'll put me in a squad card

Gm               F             C
Someday they'll throw away the key

Gm            F             C
But 'til that day I'll be a mad dog 
(here goes guitar 2 with such figure:
E||--------------------------|
B||-----3-------3-------1----|
G||---3-------3-------0------|
D||-5-----5-3-----3-2-----3--|
A||--------------------------|
E||--------------------------|


D#             F/A          Gm
Cuz that's what you taught me to be... (here starts guitar 2 w/dist.)

Dist. guitar chords:
Guitar 2
E||--------------------------|
B||--------------------------|
G||-/8----x-x-10-------------|
D||-/8----x-x-10-----5-------|
A||-/6----x-x-8------5-------|
E||------------------3-------|

*****************************************************************************
Bridge 2

 D#                        F/A
You looked into the eyes of men above you

D#                        F/A
I was the one who really tried to love you

Dist. guitar chords:
Guitar 2
E||--------------------------|
B||--------------------------|
G||-8--/10--\8--/10----------|
D||-8--/10--\8--/10----------|
A||-6--/8---\6--/8-----------|
E||--------------------------|

*****************************************************************************
Chorus 2 is played as written above (see Chorus 1) 
but instead of "chorus ending" goes solo:
*****************************************************************************

Solo
                                                     PH        PH      PH
E||-18----18----18---18---18---18-----------------------------------------------|
B||-15b1--15b1--15b1-15b1-15b1-15b1---------------------------------------------|
G||---------------------------------------------------3-3---------------3-------|
D||---------------------------------/5-3------------------5-5---------3---5-3-5-|
A||--------------------------------------5-3--------------------3-4-5-----------|
E||-----------------------------------------6-3-1-3-----------6-----------------|

    PH                                           PH
E||------------------------------------------------------------|
B||------------------------------------------------------------|
G||-3b0.25---------12---10b1~----12-10-------------------------|
D||--------5~---s12--12-----------------12-10-12-10~-----------|
A||---------------------------------------------------13-10-13-|
E||------------------------------------------------------------|

    PH    PH   
E||--------------------------------------------------------------|
B||-----------------------13---11b1r11---------------------11-13-|
G||----10---------------10--10---------12h10p12-12~-----12-------|
D||-10b---10r10-8------------------------------------------------|
A||---------------10~--------------------------------------------|
E||--------------------------------------------------------------|
                              
E||------------------------------------------------------------------|
B||-13b1-13-11-13b1-13-11-13-----------------------------------------|
G||--------------------------12~------------------3-5-7-7-5b1r5-3----|
D||-------------------------------------------3-5-----------------5~-|
A||-------------------------------------1-3-5------------------------|
E||--------------------------------1-3-------------------------------|

E||---3-3---3-3---3-3---3-3-----------|
B||-----------------------------------|
G||5b1---5b1---5b1---5b1----5b1r5-3---|
D||---------------------------------5-|
A||-----------------------------------|
E||-----------------------------------|

*****************************************************************************
Bridge 3 - (guitar without dist., strum)

E||---------------------------------|
B||---------------------------------|
G||-8---------------------10--------|
D||-8---------------------10--------|
A||-6---------------------8---------|
E||---------------------------------|
I tried to look the other way and fake it

E||---------------------------------|
B||---------------------------------|
G||-8---------------------10--------|
D||-8---------------------10--------|
A||-6---------------------8---------|
E||---------------------------------|
You push me to the limits I can't take it
*****************************************************************************
Chorus 3 (is played similar Chorus 1, 2 times)
Parts, that are played within the chorus here:

E||-11b1---11-10-----------------| |-----------------------------|
B||--------------13-11-----------| |-----------------------------|
G||--------------------12----12~-| |-----------------------------|
D||-----------------------12-----| |-8----8-8------8-------------|
A||------------------------------| |---10-----8-10---10-8-10-10~-|
E||------------------------------| |-----------------------------|

                   PH
E||--------------------------|
B||--------------------------|
G||-------------3-5b1--------|
D||---------3-5--------5~----|
A||-----3-5------------------|
E||-3-6----------------------|

And, finally, the ending:

Gm       F              C
Somebody saw you at the station





Comments


Popular Alice Cooper tabs & chords
Sick Things Bass Tabs
Welcome To My Nightmare Bass Tabs
Wicked Young Man 2 Bass Tabs
Dead Babies Tabs
Department Of Youth Tabs
Die For You Intro 1 Tabs
I Like Girls Tabs
I Never Wrote Those Songs Tabs
Only Women Bleed 2 Tabs
Vengeance Is Mine Intro Tabs


Song lyrics



↑ Back to top | Tablatures and chords are parodies/interpretations of the original songs. You may use it for private study, scholarship, research or language learning purposes only
© 2014 AZChords.com Contact us | Privacy policy | DMCA | Add/correct tabs | Request tabs | Top 50 tabs