» » »

Alice Cooper, Lost In America Tabs (ver.1)

Artists:  A B C D E F G H I J K L M N O P Q R S T U V W X Y Z # 

Lost In America Tabs (ver.1)

Alice Cooper Tabs
Rating:
0/5 (0 votes)
Lost In America lessons Tabs too difficult? Try these video lessons and learn fast
                LOST IN AMERICA 
Alice Cooper

intro

e-----------|---------------  x4
b-----------|---------------
g-----------|-------------5-
d--5--7-7-7-|--5-7-7-7-7--5-
a--5--7-7-7-|--5-7-7-7-7--3-
e--3--5-5-5-|--3-5-5-5-5----
chorus
e------------------|------------------------------   x 3 
b------------------|------------------------------
g------------------|-------------------------5----
d-5-55555555555555-|-5--7-7-7-x-x-x-x---5-7--5--5-
a-5-55555555555555-|-5--7-7-7-x-x-x-x---5-7--3--5-
e-3-33333333333333-|-3--5-5-5-x-x-x-x---3-5-----3-
   i can't.....job
then

e------------------|------------------------------
b------------------|------------------------------
g------------------|-5-7-5----5-7-5------7--------
d-5-55555555555555-|-5-7-5-7--5-7-5-7----7--------
a-5-55555555555555-|-3-5-3-7--3-5-3-7----5--------
e-3-33333333333333-|-------5--------5-------------
so now i'm.....car                       don't you...are
verse
e--------------------------------------------------------
b--------------------------------------------------------
g--------------------------------------------------------
d-5-5-5-5-4-3------5-5-5-5-4-3------5-5-5-5-4-3------5---
a-5-5-5-5-4-3------5-5-5-5-4-3------5-5-5-5-4-3------5---
e-3-3-3-3-2-1------3-3-3-3-2-1------3-3-3-3-2-1------3---
  lost in america  lost in america  lost in america  lost

e-3-0-------------3---3-0------------------3-0-------------0------000-3-----
g-----3-0-3-3-0-3---------3-0-3-3-0-3----------3-0-3-3-0-3----------------3-
g-------------------------------------0---------------------------------0---
d---------------------------------------------------------------------------
a---------------------------------------------------------------------------
e---------------------------------------------------------------------------
 i live in the 711    i'm tryin'...guitar  i'm learn...heaven     coz...are

                       BY MEASTRO RORY IRVINE
            

comments powered by Disqus
↑ Back to top | Alice Cooper Tabs for Lost In America. Lyrics for acoustic guitar and electric guitar. Tablatures and chords are parodies/interpretations of the original songs. You may use it for private study, scholarship, research or language learning purposes only