>
 >
I'm Your Gunnnn

I'm Your Gunnnn Guitar Tabs

Alice Cooper - I'm Your Gunnnn chords, tabs, tablatures, lyrics

Guitar lessons | Add/correct | Request | Top 50 tabs Artists:  A B C D E F G H I J K L M N O P Q R S T U V W X Y Z 0-9

I'm Your Gunnnn Guitar Tabs – Alice Cooper

CD, Sheet music, Poster

Do you like I'm Your Gunnnn? Share with your friends now
Tabs
 
 "I'm Your Gun" by Alice Cooper
  Words and music by Deamond Child, Alice Cooper, and Michael McCurry

  From the album Trash (1989)


  T=use tremelo bar  AH=artificial harmonic   NH=natural harmonic

  < >=strike note while already bent   .= palm mute note

  ~~~=vibrato


   Spoken intro
   "You're mama thinks I'm filthy. Your daddy calls me scum. Wrap you're
    fingers all around me, I'm you're g-g-g-g-g-g-g-g-gun!"

  (after drum intro)
E-|--------------------|
B-|--------------------|
G-|--20\--20--20-------|
D-|--------------------|
A-|--------------------|
E-|---------------16\--|


                                                                "Well,    I'm
   Guitar one
E-|---------------------------------------------------------------------------|
B-|---------------------------------------------------------------------------|
G-|--4------6/7-----4--------4------6------6/7-----4--4----6/7---4---4--4-----|
D-|--4------6/7-----4--------4------6------6/7-----4--4----6/7---4---4--4-----|
A-|--2------4/5-----2--------2------4------4/5-----2--2----4/5---2---2--2-----|
E-|---------------------------------------------------------------------------|
  |                                                                           |
  |Guitar two                                                                 |
E-|---------------------------------------------------------------------------|
B-|---------------------------------------------------------------------------|
G-|--4--------------4---------------------------------------------------------|
D-|--4--------------4---------------------------------------------------------|
A-|--2-----------0--2------------------0--------------------------------------|
E-|---------------------------------------4--2--------------------------------|
  |                                                                           |
  |Guitar three                                                               |
E-|---------------------------------------------------------------------AH----|
B-|---------------------------------------------------------------------5-----|
G-|---------------------------------------------------------------------------|
D-|--------------------------------7~~~------------------6--------------------|
A-|---------9~~~--------------------------------------------------------------|
E-|--7---7----------4--------7--7------------4-----7--7----------4--7-7-7-7\--|


  Verse
  1. "dressed in    black,  I'm a  heart attack    and  my draw   is  lightning
  2. "hard as they come,    I'm a  hit and run.  I'm a pistol packing

   Guitar one
E-|---------------------------------------------------------------------------|
B-|---------------------------------------------------------------------------|
G-|---------------------------------------------------------------------------|
D-|-----------9----------9---------9-----9--------9---------------9--------9--|
A-|-----------9----------9---------9-----9--------9---------------9--------9--|
E-|---7--7-------7--7-------7---7-----7-----7--7-----7--7---7--7-----7--7-----|
  |                                                                           |
  |Guitar two                                                                 |
E-|---------------------------------------------------------------------------|
B-|---------------------------------------------------------------------------|
G-|---------------------------------------------------------------------------|
D-|---------------------------------------------------------------------------|
A-|---.--.----.--.---.--.--.--.-----------------------------------------------|
E-|---7--7----9--10--7--7--9--10---7--7--9--10--7--7--9--10--7--7--9--10--7--7|


   "quick.              Well if you're looking for a man    with the
   "boy.                  Better       walk    real  slow, I'm  on the
   Guitar one
E-|---------------------------------------------------------------------------|
B-|---------------------------------------------------------------------------|
G-|------------------------------------9-------9---------9--------------------|
D-|--------9-----9--------9------------9-------9---------9--------------------|
A-|--------9-----9--------9------5-----7-------7------7-----7-----7-----------|
E-|--7--7-----7-----7--7------7-----------------------------------------------|
  |                                                                           |
  |Guitar two                                                                 |
E-|---------------------------------------------------------------------------|
B-|---------------------------------------------------------------------------|
G-|---------------------------------------------------------------------------|
D-|---------------------------------------------------------------------------|
A-|--.--.---.--.--.--.---.--.--.--.----.---.---.---.---.---.---.---.----------|
E-|--9--10--7--7--9--10--7--7--9--10---12--12--10--12--12--12--10--12---------|


    "magic     hands,   I can        really          do    the trick."
    "edge, you know, and I'm         easily             annoyed."
   Guitar one
E-|---------------------------------------------------------------------------|
B-|---------------------------------------------------------------------------|
G-|---9-----9--------9---------------9---9--------------9------7--------------|
D-|---9-----9--------9---------------9---9--------------9------7--------------|
A-|---7--7--7--7--7--7---7--7--------7---7-----------7-----7------------------|
E-|---------------------------------------------------------------------------|
  |                                                                           |
  |Guitar two                                                                 |
E-|---------------------------------------------------------------------------|
B-|---------------------------------------------------------------------------|
G-|---------------------------------------------------------------------------|
D-|---------------------------------------------------------------------------|
A-|---------------------------------------------------------------------------|
E-|--12--12--10--12--12--12--10--12--12--12--10--12--12--12--10--12-----------|


    "                  And   if you see me on the street and you're
    "                     Someone's giving you trouble, I'll be
   Guitar one
E-|---------------------------------------------------------------------------|
B-|---------------------------------------------------------------------------|
G-|--9-------9----------------------------------------------------------------|
D-|--9-------9----------------------9------9----------9-----------------------|
A-|--7-------7----------------------9------9----------9-----------------------|
E-|------------------10--10--9--9---7------7------7------7---7----------------|
  |                                                                           |
  |Guitar two                                                                 |
E-|---------------------------------------------------------------------------|
B-|---------------------------------------------------------------------------|
G-|---------------------------------------------------------------------------|
D-|---------------------------------------------------------------------------|
A-|--.---.---.---.---.---.---.--.---.--.---.--.---.--.--.--.------------------|
E-|--12--12--10--12--10--10--9--9---7--7---9--10--7--7--9--10-----------------|
  |                                                                           |
  |Guitar three                                                               |
E-|---------------------------------------------------------------------------|
B-|---------------------------------15------15--------------------------------|
G-|---------------------------------14------14-------14-----------------------|
D-|---------------------------------13------13-------13-----------------------|
A-|---------------------------------------------------------------------------|
E-|---------------------------------------------------------------------------|


   "burning from the heat, there's a  fire           down   below."
   "there on the double, just         call   me     on     the    line."
   Guitar one
E-|---------------------------------------------------------------------------|
B-|---------------------------------------------------------------------------|
G-|---------------------------------------------------------------------------|
D-|--9-------9-----------9-----------9-------9-----------9--------------------|
A-|--9-------9-----------9-----------9-------9-----------9--------------------|
E-|--7-------7-------7------7-----7--7-------7-------7------7-----7-----------|
  |                                                                           |
  |Guitar two                                                                 |
E-|---------------------------------------------------------------------------|
B-|---------------------------------------------------------------------------|
G-|---------------------------------------------------------------------------|
D-|---------------------------------------------------------------------------|
A-|--.--.----.--.---.--.----.-----.---.--.--.--.---.--.----.-----.------------|
E-|--7--7----9--10--7--7----9-----10--7--7--9--10--7--7----9-----10-----------|
  |                                                                           |
  |Guitar three                                                               |
E-|---------------------------------------------------------------------------|
B-|--15------15---------------------------------------------------------------|
G-|--14------14----------14---------------------------------------------------|
D-|--13------13----------13---------------------------------------------------|
A-|---------------------------------------------------------------------------|
E-|---------------------------------------------------------------------------|


               "You be the  target on the bed,  I'll be
               "I've got a muscle I can flex that'll
   Guitar one
E-|---------------------------------------------------------------------------|
B-|---------------------------------------------------------------------------|
G-|-----------------------------------------------9-------7-------------------|
D-|--9--9--9---9--9--9--7--------9---9--9---------9-------7-------------------|
A-|--9--9--9---9--9--9--5--------9---9--9-------7----7------------------------|
E-|--7--7--7---7--7--7-----------7---7--7-------------------------------------|
  |                                                                           |
  |Guitar two                                                                 |
E-|---------------------------------------------------------------------------|
B-|---------------------------------------------------------------------------|
G-|---------------------------------------------------------------------------|
D-|---------------------------------------------------------------------------|
A-|--.--.--.--.---.--.--.---.---.---.---.---.-----.-------.-------------------|
E-|--7--7--9--10--7--7--9---10--12--12--10--12----12------12------------------|


    "shooting hot lead.          Let me    take control.
    "fog your little specs till you think you're going blind."
   Guitar one
E-|---------------------------------------------------------------------------|
B-|---------------------------------------------------------------------------|
G-|--9--------9--------9---------9--9--9------9---------------9--9--9---------|
D-|--9--------9--------9---------9--9--9------9---------------9--9--9---------|
A-|--7--------7-----7-----7--7---7--7--7---7-----7--7---------7--7--7---------|
E-|---------------------------------------------------------------------------|
  |                                                                           |
  |Guitar two                                                                 |
E-|---------------------------------------------------------------------------|
B-|---------------------------------------------------------------------------|
G-|---------------------------------------------------------------------------|
D-|---------------------------------------------------------------------------|
A-|--.---.---.---.-----.-----.---.---.---.----.-----.-------------------------|
E-|--12--12--10--12----12----12--12--12--10---12----12--------12--10--12--10--|


    "You're a     scared little girl in this big, bad     town.
    "I            know these streets like the scars on my back
   Guitar one
E-|------------|---------------------------------------------------------------|
B-|------------|---------------------------------------------------------------|
G-|--9---------|--2------------2--2----------2--------2---2--------------------|
D-|--9---------|--2------------2--2----------2--------2---2--------------------|
A-|-----7---x--|--0------------0--0----------0--------0---0--------------------|
E-|------------|---------------------------------------------------------------|


    "So    easy to sink,          so easy to drown."
    "and I stay as loaded as this    gun on my back.     Aww..."
E-|---------------------------------------------------------------------------|
B-|---------------------------------------------------------------------------|
G-|--2--2--4-------4----4---------4--4-------4-----4--------------------------|
D-|--2--2--4-------4----4---------4--4-------4-----4--------------------------|
A-|--0--0--2-------2----2---------2--2-------2-----2--------------------------|
E-|---------------------------------------------------------------------------|


  Chorus
    "Pull my trigger,  I  get bigger, then I'm lots   of fun.      I'm your
E-|---------------------------------------------------------------------------|
B-|--7----7-----7--9---7--9---9---9---7----9---9---9-----7-----9--------------|
G-|--7----7-----7--9---7--9---9---9---7----9---9---9-----7-----9--------------|
D-|--7----7-----7--9---7--9---9---9---7----9---9---9-----7-----9---.-.-.-.----|
A-|--5----5-----5--7---5--7---7---7---5----7---7---7-----5-----7---5-5-4-4----|
E-|---------------------------------------------------------------------------|


    "gu________________n.   I'm your    gun,   gun,  gun."
   Guitar one
E-|---------------------------------------------------------------------------|
B-|---------------------------------------------------------------------------|
G-|--4--4---6/7---4-----4----6/7--6/7---4--4---6/7---4---4--4\2---------------|
D-|--4--4---6/7---4-----4----6/7--6/7---4--4---6/7---4---4--4\2---------------|
A-|--2--2---4/5---2-----2----4/5--4/5---2--2---4/5---2---2--2\0---------------|
E-|---------------------------------------------------------------------------|
  |                                                                           |
  |Guitar two                                                                 |
E-|---------------------------------------------------------------------------|
B-|-----AH--------------------------------------------------------------------|
G-|-----9b~~~~~~~~--9b--9b--7~~~~~~~~~~~\-------------------------------------|
D-|---------------------------------------------7-----------------------------|
A-|----------------------------------------7h9-----9--7--7h9------------------|
E-|-----------------------------------------------------------7--7\-----------|
  |                                                                           |
  |Guitar three                                                               |
E-|---------------------------------------------------------------------------|
B-|---------------------------------------------------------------------------|
G-|-----9b---9b~~~~~\--------7-------7~~--------------------------------------|
D-|---------------------7h9-------9----------9--7-----------------------------|
A-|------------------------------------------------9--8--7h9--7\5\2-----------|
E-|---------------------------------------------------------------------------|


    "Bite my bullet, push and pull it. Tell me I'm the one.      I'm your
E-|---------------------------------------------------------------------------|
B-|--7----7---7--9---7----9---9----9---7----9---9--9---7-----9----------------|
G-|--7----7---7--9---7----9---9----9---7----9---9--9---7-----9----------------|
D-|--7----7---7--9---7----9---9----9---7----9---9--9---7-----9---.-.-.-.------|
A-|--5----5---5--7---5----7---7----7---5----7---7--7---5-----7---5-5-4-4------|
E-|---------------------------------------------------------------------------|


    "gu________________n.   I'm your    gun,   gun,  gun."
   Guitar one
E-|---------------------------------------------------------------------------|
B-|---------------------------------------------------------------------------|
G-|--4--4---6/7---4-----4----6/7--6/7---4--4---6/7---4---4--4\2---------------|
D-|--4--4---6/7---4-----4----6/7--6/7---4--4---6/7---4---4--4\2---------------|
A-|--2--2---4/5---2-----2----4/5--4/5---2--2---4/5---2---2--2\0---------------|
E-|---------------------------------------------------------------------------|
  |                                                                           |
  |Lead guitar first time                                                     |
E-|---------------------------------------------------------------------------|
B-|---<17>rb---p15--17--17--15~~----------------------------------------------|
G-|-----------------------------0--------11-----9--9--7---9-----9--9----------|
D-|------------------------------------------9---------------9----------------|
A-|---------------------------------------------------------------------------|
E-|---------------------------------------------------------------------------|
  |                                                                           |
  |Lead guitar second time                     AH   AH   AH                   |
E-|----10b----------10~~~~--------------10-----9p0--7p0-----------------------|
B-|------------------------------------------------------10------7------------|
G-|-----------------------------------------7----------------9------7---------|
D-|--------------------------------------------------------------------9\-----|
A-|---------------------------------------------------------------------------|
E-|---------------------------------------------------------------------------|


    "Hold            on              steady,                     always
E-|---------------------------------------------------------------------------|
B-|----------.-----------.-----------.-----------.-----------.-----------.----|
G-|------.---12------.---11------.---12------.---11------.---12------.---14---|
D-|--.---12------.---12------.---12------.---12------.---12------.---14-------|
A-|--10----------10----------10----------10----------10----------12-----------|
E-|---------------------------------------------------------------------------|


    "                      rea______________dy.     Yeah."
   Guitar one
E-|---------------------------------------------------------------------------|
B-|----------.----------------------------------------------------------------|
G-|----------14--.--------.------------------7------4-----4---6/7--4----------|
D-|--.---.-------12--.----14-----------7--------9---4-----4---6/7--4----------|
A-|--12--12----------12-------7--8--9-----9---------2-----2---4/5--2----------|
E-|---------------------------------------------------------------------------|
  |                                                                           |
  |Guitar two                              *= play second time                |
E-|----------------------------------------*AH--------------------------------|
B-|------------------------------------------5--------------------------------|
G-|----------------------------------------------------------AH---------------|
D-|----------------------------------------------------------9----------------|
A-|---------------------------------------------------------------------------|
E-|-------------------------------------------------7-----7--------0----------|


    "                                     Well,  I'm as  [Go to verse 2]
   Guitar one
E-|---------------------------------------------------------------------------|
B-|---------------------------------------------------------------------------|
G-|------4----6/7--6/7----4-----4----6/7--4---4-----4\2-----------------------|
D-|------4----6/7--6/7----4-----4----6/7--4---4-----4\2-----------------------|
A-|------2----4/5--4/5----2-----2----4/5--2---2-----2\0-----------------------|
E-|---------------------------------------------------------------------------|
  |                                                                           |
  |Guitar two                                                                 |
E-|---------------------------------------------------------------------------|
B-|---------------------------------------------------------------------------|
G-|---------AH---------------------AH-----------------------------------------|
D-|---------7----------------------6------------------------------------------|
A-|----------------------------------------------------AH---------------------|
E-|--7---7-----------4----7--7--7---------0---7--7--7--7\---------------------|

 
     "Yeah!"
   Solo
    Guitar one                                                            T
 E-|----AH-----T--------T---------T-------------------------0------12-----12\--|
 B-|--(<5>rb---/--------/---------/)-------------------------------------------|
 G-|-------------------------------------------7\6--9----9------9------9-------|
 D-|------------------------------------------------7--------------------------|
 A-|---------------------------------------------------------------------------|
 E-|--------------0--------------------3h4-------------------------------------|
   |                                                                           |
   |Guitar two                                                                 |
 E-|---------------------------------------------------------------------------|
 B-|---------------------------------------------------------------------------|
 G-|-------------------------------------------2----2--------------2-----------|
 D-|-------------------------------------------2----2--------------2-----------|
 A-|--------------T----------------------------0----0---------0----0-----------|
 E-|--------------0\-------------------------------------3b--------------3--4--|
 
 
    Guitar one
 E-|-------10-----10------------9--------10------------------------------------|
 B-|-----------------------------------------T------------10b-rb-b-------------|
 G-|--8\7------7------7--7\6--------6/7------7/--------------------------------|
 D-|---------------------------------------------------------------------------|
 A-|---------------------------------------------------------------------------|
 E-|---------------------------------------------------------------------------|
   |                                                                           |
   |Guitar two                                                                 |
 E-|---------------------------------------------------------------------------|
 B-|---------------------------------------------------------------------------|
 G-|--2----2-----------------------------2--------------4---4----6/7----4------|
 D-|--2----2-----------------------------2--------------4---4----6/7----4------|
 A-|--0----0------------------------0----0----------0---2---2----4/5----2------|
 E-|----------------------------3b---------------4-----------------------------|
   |                                                                           |
   |Guitar three                                                               |
 E-|--------------------------------------------------------10---10--10--10----|
 B-|---------------------------------------------------------9b--<9>-<9>--9----|
 G-|---------------------------------------------------------------------------|
 D-|---------------------------------------------------------------------------|
 A-|---------------------------------------------------------------------------|
 E-|---------------------------------------------------------------------------|
 
 
    Guitar one
 E-|---------------------------------------------------------------------------|
 B-|--------------------10---9---------8--7------------------------------------|
 G-|----------------------------------------9--7-------------------------------|
 D-|----------------------------------------------9--7-----------T-------------|
 A-|----------------------------------------------------9--8--7--5\------------|
 E-|---------------------------------------------------------------------------|
   |                                                                           |
   |Guitar two                                                                 |
 E-|---------------------------------------------------------------------------|
 B-|---------------------------------------------------------------------------|
 G-|--------4--4--------6/7--6---------4---4--------6/7-----4-----4------------|
 D-|--------4--4--------6/7--6---------4---4--------6/7-----4-----4------------|
 A-|--------2--2--------4/5--4---------2---2--------4/5-----2-----2------------|
 E-|---------------------------------------------------------------------------|
   |                                                                           |
   |Guitar three                                                               |
 E-|--10---10--10--10--10--10--10--7---7--10---10--10--10---7--7--10--10--10--10|
 B-|---9b--<9>-<9>-<9>-<9>-<9>-<9>-7---7---9b--<9>-<9>-<9>--7--7--9b--<9>-<9>-<9>|
 G-|---------------------------------------------------------------------------|
 D-|---------------------------------------------------------------------------|
 A-|---------------------------------------------------------------------------|
 E-|---------------------------------------------------------------------------|
 
 
 
    Guitar one     T
 E-|--------------12\---<12>\--<12>\--<12>\--------------5h8p5h8---------------|
 B-|--------------------------------------------5h8p5h8--5---------------------|
 G-|--/9--/9----------9------9------9------9-----------------------------------|
 D-|--/7--/7-------------------------------------------------------------------|
 A-|---------------------------------------------------------------------------|
 E-|---------------------------------------------------------------------------|
   |                                                                           |
   |Guitar two                                                                 |
 E-|---------------------------------------------------------------------------|
 B-|---------------------------------------------------------------------------|
 G-|--2--2--2--2--2------2------2-------2-------2--2-----2--2------------------|
 D-|--2--2--2--2--2------2------2-------2-------2--2-----2--2------------------|
 A-|--0--0--0--0--0------0------0-------0-------0--0-----0--0------------------|
 E-|---------------------------------------------------------------------------|
   |                                                                           |
   |Guitar three                                                               |
 E-|---------------------------------------------------------------------------|
 B-|---------------------------------------------------------------------------|
 G-|----4b--4b-----------------------------------------------------------------|
 D-|---------------------------------------------------------------------------|
 A-|---------------------------------------------------------------------------|
 E-|---------------------------------------------------------------------------|
 
 
    Guitar one
 E-|--8b------<8>/------------24b------------22~~~~~---------22b---------------|
 B-|---------------------------------------------------------------------------|
 G-|---------------------------------------------------------------------------|
 D-|----------------------18---------------------------------------------------|
 A-|-----------------/21-------------------------------------------------------|
 E-|---------------------------------------------------------------------------|
   |                                                                           |
   |Guitar two                                                                 |
 E-|---------------------------------------------------------------------------|
 B-|---------------------------------------------------------------------------|
 G-|--2--2--2--2-------4--4---4----6/7---4------4--4---6/7---6/7---------------|
 D-|--2--2--2--2-------4--4---4----6/7---4------4--4---6/7---6/7---------------|
 A-|--0--0--0--0-------2--2---2----4/5---2------2--2---4/5---4/5---------------|
 E-|---------------------------------------------------------------------------|
 
 
    Guitar one
 E-|--(22)rb--------b----22~~~-------------------------------------------------|
 B-|---------------------------------------------------------------------------|
 G-|--------------------------------------------------------------12h14--------|
 D-|----------------------------------------------.-------.---.----------.-----|
 A-|----------------------------------------------12--.---12--12---------12----|
 E-|-----------------------------------15--15\--------12-----------------------|
   |                                                                           |
   |Guitar two                                                                 |
 E-|---------------------------------------------------------------------------|
 B-|---------------------------------------------------------------------------|
 G-|--4---4---6/7---4-----------4---4-------------2---------------2------------|
 D-|--4---4---6/7---4-----------4---4-------------2---------------2------------|
 A-|--2---2---4/5---2-----------2---2-------------0---------------0------------|
 E-|---------------------------------------------------------------------------|
 
 
    Guitar one
 E-|--------------------------------------------------------------------------------|
 B-|--15------15--14~~~~~------17--16--15-------------------------------------------|
 G-|-----------------------14--------------17--16--14-------------------------------|
 D-|---------------------------------------------------17--16--14--------------T----|
 A-|------12-------------------------------------------------------17--16--17--16\--|
 E-|--------------------------------------------------------------------------------|
   |                                                                                |
   |Guitar two                                                                      |
 E-|--------------------------------------------------------------------------------|
 B-|--------------------------------------------------------------------------------|
 G-|--2-----------2------------2-----------2-----------2-----------2-----------2--2-|
 D-|--2-----------2------------2-----------2-----------2-----------2-----------2--2-|
 A-|--0-----------0------------0-----------0-----------0-----------0-----------0--0-|
 E-|--------------------------------------------------------------------------------|
 
 
    Guitar one
             AH
             T
 E-|---------7/----------------------------------------------------------------|
 B-|---------------------------------------------------------------------------|
 G-|---------------------------------------------------------------------------|
 D-|---------------------------------------------------------------------------|
 A-|---------------------------------------------------------------------------|
 E-|---------------------------------------------------------------------------|
   |                                                                           |
   |Guitar two                                                                 |
 E-|---------------------------------------------------------------------------|
 B-|---------------------------------------------------------------------------|
 G-|--4------4--------6/7--------4----------4-----6/7----6/7-------------------|
 D-|--4------4--------6/7--------4----------4-----6/7----6/7-------------------|
 A-|--2------2--------4/5--------2----------2-----4/5----4/5-------------------|
 E-|---------------------------------------------------------------------------|
   |                                                                           |
   |Guitar three                                                               |
 E-|---------------------------------------------------------------------------|
 B-|------------------19--21----21b--------------------------19----------------|
 G-|------------------19--21----21b----------------------21--------------------|
 D-|---------19--21------------------------------------------------------------|
 A-|---------------------------------------------------------------------------|
 E-|---------------------------------------------------------------------------|
 
 
    Guitar two                                                                 
 E-|---------------------------------------------------------------------------|
 B-|---------------------------------------------------------------------------|
 G-|--4------4----x----6/7--------4---4---4------------------------------------|
 D-|--4------4----x----6/7--------4---4---4------------------------------------|
 A-|--2------2----x----4/5--------2---2---2------------------------------------|
 E-|---------------------------------------------------------------------------|
   |                                                                           |
   |Guitar three                                                               |
 E-|---------------------------------------------------------------------------|
 B-|--22----22----21-----21---19-----------------------------------------------|
 G-|--23----23----21-----21---19-----------------------------------------------|
 D-|---------------------------------------------------------------------------|
 A-|---------------------------------------------------------------------------|
 E-|---------------------------------------------------------------------------|
 
 
     "Hold            on              steady,                     al______
 E-|---------------------------------------------------------------------------|
 B-|----------.-----------.-----------.-----------.-----------.-----------.----|
 G-|------.---12------.---11------.---12------.---11------.---12------.---14---|
 D-|--.---12------.---12------.---12------.---12------.---12------.---14-------|
 A-|--10----------10----------10----------10----------10----------12-----------|
 E-|---------------------------------------------------------------------------|
 
 
     "____________ways     rea________________dy.       Yeah     (yeah)"
    Guitar one
 E-|---------------------------------------------------------------------------|
 B-|-------------------------------------------.-------------------------------|
 G-|-----------.---.-------.-------.---.---.---14--.---------------------------|
 D-|--.---.----14--14--.---14------14--14--14------14--------------------------|
 A-|--12--12-----------12------12-----------------------4--4--4--4--4--4--4--4-|
 E-|----------------------------------------------------2--2--2--2--2--2--2--2-|
 
 
     "Yeah     (yeah)          Yeah     (yeah)                   
 E-|---------------------------------------------------------------------------|
 B-|---------------------------------------------------------------------------|
 G-|---------------------------------------------------------------------------|
 D-|---------------------------------------------------------------------------|
 A-|--4--4--4--4--4--4--4--4---4--4--4--4--4--4--4--4--4--4--4--4--4--4--4--4--|
 E-|--2--2--2--2--2--2--2--2---2--2--2--2--2--2--2--2--2--2--2--2--2--2--2--2--|
 
 
    "Pull my trigger, I       get bigger. Then I'm lots of fun.   I'm  your
 E-|---------------------------------------------------------------------------|
 B-|---------------------------------------------------------------------------|
 G-|------9-------------------9-----------9----9-------------------------------|
 D-|------9-------------------9-----------9----9------------------.--.--.--.---|
 A-|------7-------------------7-----------7----7------------------5--5--4--4---|
 E-|--0-----------------0--0---------------------------------------------------|
 
 
     "gu________________n.          I'm      your gun,     gun,      gun."
    Guitar one
 E-|---------------------------------------------------------------------------|
 B-|---------------------------------------------------------------------------|
 G-|--4--4---6/7-----4-----4--------6/7------6/7----4--4---6/7-------4---------|
 D-|--4--4---6/7-----4-----4--------6/7------6/7----4--4---6/7-------4---------|
 A-|--2--2---4/5--0--2-----2--------4/5------4/5----2--2---4/5---0---2---------|
 E-|---------------------------------------------------------------------------|
   |                                                                           |
   |Guitar two                                                                 |
 E-|---------------------------------------------------------------------------|
 B-|----22b-------------22--19------19-----------------------------------------|
 G-|----------------------------21------19------21--19~~~~---------------------|
 D-|----------------------------------------21---------------21--19------------|
 A-|-----------------------------------------------------------------21--20----|
 E-|---------------------------------------------------------------------------|
 
 
                            "Rub my barrel, straight    and narrow. Dress
                            "Load  my clip and lick    your  lips,
    Guitar one
 E-|---------------------------------------------------------------------------|
 B-|---------------------------------------------------------------------------|
 G-|---------------4\--------------9-----------------------9-------------------|
 D-|---------------4\--------------9-----------------------9-------------------|
 A-|---------------2\--------------7-----------------------7-------------------|
 E-|----------------------------0--------------------0--0----------------------|
   |                                                                           |
   |Guitar two                                                                 |
 E-|---------------------------------------------------------------------------|
 B-|-------------------------------15~~~~--------------------------------------|
 G-|-------------------------------------------------14b--<14>-<14>--<14>-<14>-|
 D-|---------------------------------------------------------------------------|
 A-|--19--17------19--19--17\--------------------------------------------------|
 E-|----------19---------------------------------------------------------------|
 
 
     "                 up like a nun.        n-n-n-n-n-n-nun
     "        This     is getting fun.               I'm your
    Guitar one
 E-|---------------------------------------------------------------------------|
 B-|---------------------------------------------------------------------------|
 G-|----------9--------9-------------------------------------------------------|
 D-|----------9--------9---------------------------.-.-.-.---------------------|
 A-|----------7--------7---------------------------5-5-4-4---------------------|
 E-|---------------------------------------------------------------------------|
   |                                                                           |
   |Guitar two                           T                                     |
   |                                     NH                                    |  
 E-|-------------------------------------12\-----------------------------------|
 B-|---------------------------------------------------------------------------|
 G-|--<14>rb-14p13---14---13---------------------------------------------------|
 D-|---------------------------12---14-----------------------------------------|
 A-|---------------------------------------------------------------------------|
 E-|---------------------------------------------------------------------------|
 
 
     "gu________________n.               I'm    your   gun,   gun,    gun."
    Guitar one
 E-|---------------------------------------------------------------------------|
 B-|---------------------------------------------------------------------------|
 G-|--4--4---6/7-----4------------4------6/7----6/7----4--4---6/7-----4---4\---|
 D-|--4--4---6/7-----4------------4------6/7----6/7----4--4---6/7-----4---4\---|
 A-|--2--2---4/5--0--2------------2------4/5----4/5----2--2---4/5--0--2---2\---|
 E-|---------------------------------------------------------------------------|
   |                                                                           |
   |Guitar two                                                                 |
 E-|----------------------------------------------------------------------T----|
 B-|---------17b-------<17>--<17>---<17>--<17>--<17>rb-p15--17--17--15----16/--|
 G-|----------------------------------------------------------------------17/--|
 D-|---------------------------------------------------------------------------|
 A-|---------------------------------------------------------------------------|
 E-|---------------------------------------------------------------------------|
   |                                                                           |
   |Guitar three                                                               |
 E-|-----22b------------rb~~~~-------------------------22b------------------------------|
 B-|------------------------------------------------------------------21b--21--19--21b--|
 G-|------------------------------------------------------------------21b--21--19--21b--|
 D-|------------------------------------------------------------------------------------|
 A-|------------------------------------------------------------------------------------|
 E-|------------------------------------------------------------------------------------|
 
 
     "Hold            on              stea____________dy,         al________
 E-|---------------------------------------------------------------------------|
 B-|----------.-----------.-----------.-----------.-----------.-----------.----|
 G-|------.---12------.---11------.---12------.---11------.---12------.---14---|
 D-|--.---12------.---12------.---12------.---12------.---12------.---14-------|
 A-|--10----------10----------10----------10----------10----------12-----------|
 E-|---------------------------------------------------------------------------|
 
 
     "ways                      rea______________dy.  Yeah!"
    Guitar one
 E-|---------------------------------------------------------------------------|
 B-|----------.-------------------------------.--------------------------------|
 G-|----------14--.--------.------------.-----7--.----------4------------------|
 D-|--.---.-------12--.----14--.--.--.--7--.-----9----------4------------------|
 A-|--12--12----------12-------7--8--9-----9----------------2------------------|
 E-|---------------------------------------------------------------------------|





Comments


Popular Alice Cooper tabs & chords
Billion Dollar Babies 3 Tabs
Devil's Food Tabs
No More Mr Nice Guy Tabs
Nurse Rozetta Tabs
School's Out Tabs
Song That Didnt Rhyme Tabs
Triggerman Tabs
Wicked Young Man 1 Tabs
Shools Out For Summer Ukulele
Steven Ukulele


Song lyrics



↑ Back to top | Tablatures and chords are parodies/interpretations of the original songs. You may use it for private study, scholarship, research or language learning purposes only
© 2014 AZChords.com Contact us | Privacy policy | DMCA | Add/correct tabs | Request tabs | Top 50 tabs