» » »

Alice Cooper, Hes Back The Man Behind The Mask Tabs (ver.1)

Artists:  A B C D E F G H I J K L M N O P Q R S T U V W X Y Z # 

Hes Back The Man Behind The Mask Tabs (ver.1)

Alice Cooper Tabs
Rating:
0/5 (0 votes)
Hard to play? Try these video lessons and learn fast.
                Band: Alice Cooper

NOTE: This is what I heard. Kane's guitar parts are hard to tab so I don't know about 
harmonics in the solo. I tabbed the keyboard and guitar parts.

Keys
b = bend
r = release
\ = slide up neck
/ = slide down neck
h = hammer-on
p = pull-off
~ = vibrato
w = whammy bar
< > = strike the notes in between the symbols while in the bend
D = strum down
U = strum up
. = palm muted note
H = harmonic

Keyboard Intro
E----------|
B----------|
G----------|
D-2--------|
A-2--------|
E-0--------|

Guitar Intro (Kane Roberts)
E-------------------------------|
B-------------------------------|
G-7---(pull the whammy bar up)--|
D-------------------------------|
A-------------------------------|
E-------------------------------|

Bass Riff
E-------------------------|
B-------------------------|
G-------------------------|
D-------------------------|
A-------7-----5-----5--7--|
E-0--0-----0-----0--------|

Keyboard Riff 1
E--------------------------------------|
B-8----7--8--------8----------7--8-----|
G-9----7--9--------9----------7--9-----|
D-9----7--9--------9----------7--9-----|
A--------------------------------------|
E--------------------------------------|

Keyboard Riff 2
E----------2-----------------------2-----------------------3------------|
B----3-----------3-----------3-----------3------------------------------|
G-2-----2-----2-----2-----4-----4-----4-----4--------5-----------5------|
D-------------------------------------------------5-----5-----5-----5---|
A-----------------------------------------------------------------------|
E-----------------------------------------------------------------------|

E----------5--------------|
B-------------------------|
G----7-----------7--------|
D-7-----7-----7-----7-----|
A-------------------------|
E-------------------------|

Keyboard Riff 3
E-0----0--0--1----1--1--3----3--3------3--3----|
B-1----1--1--1----1--1--3----3--3------3--3----|
G-2----2--2--2----2--2--0----0--0------0--0----| 3x
D----------------------------------------------|
A----------------------------------------------|
E----------------------------------------------|

E-0----0--0--1----1--1---3-----------3-----------3-----------3----------|
B-1----1--1--1----1--1---------3-----------3-----------3-----------3----|
G-2----2--2--2----2--2------0-----0-----0-----0-----0-----0-----0-----0-|
D-----------------------------------------------------------------------|
A-----------------------------------------------------------------------|
E-----------------------------------------------------------------------|

E----------|
B----------|
G----------|
D-2--------|
A-2--------|
E-0--------|

Keyboard Riff 4
E----------2-----------------------2-----------------------3------------|
B----3-----------3-----------3-----------3------------------------------|
G-2-----2-----2-----2-----4-----4-----4-----4--------5-----------5------|
D-------------------------------------------------5-----5-----5-----5---|
A-----------------------------------------------------------------------|
E-----------------------------------------------------------------------|

E-------5--------------|
B-3--------------------|
G-------------7--------|
D----5-----7-----7-----|
A----------------------|
E----------------------|

Guitar Solo (fade in on the 7th fret of the G string)
                                                  H     H     H     H
E------------------------------------------------------------------(10)-|
B---------------------------------8--------------(8)---(8)---(8)--------|
G-7~~~-------------7--9---9b11--------9~~~------------------------------|
D-------------/9--------------------------------------------------------|
A-----------------------------------------------------------------------|
E-----------------------------------------------------------------------|

   H
E-(12)------------------------------------------------------------------|
B-----------------8-----------------------------------------------------|
G-----------9--7-----9------7--9---9/11---11/12---12/14---14---12---11--|
D-----------------------------------------------------------------------|
A-----------------------------------------------------------------------|
E-----------------------------------------------------------------------|

E---------------------------------------17b19---17b19---17b19r17~~~~---|
B----------------------------------------------------------------------|
G--11h12h14p12p11------------------------------------------------------|
D------------------12~~~----------12-----------------------------------|
A----------------------------/14---------------------------------------|
E----------------------------------------------------------------------|

Guitar Riff
E-----------------------------------|
B-10b12r10--8--7--------------------|
G-----------------9--7--------------|
D-----------------------9/7---7~~~--|
A-----------------------------------|
E-----------------------------------|

Keyboard Riff 5 (play along with lyrics)
E-----------------------------------------------------------------------|
B----------7---7----7--7--8--7-------------------------7---7----7--7--8-|
G-9---9--------------------------9------------9---9---------------------|
D-------------------------------------9---------------------------------|
A-----------------------------------------------------------------------|
E-----------------------------------------------------------------------|

E-----------------------------------------------------------------|
B-7-------------------7---8-----7-----------8-----7---------------|
G-----9----9------9-------------------7-----------------7----9----|
D-----------------------------------------------------------------|
A-----------------------------------------------------------------|
E-----------------------------------------------------------------|

Keyboard Riff 6
E-0----0--0--1----1--1--3----3--3------3--3----|
B-1----1--1--1----1--1--3----3--3------3--3----|
G-2----2--2--2----2--2--0----0--0------0--0----|
D----------------------------------------------|
A----------------------------------------------|
E----------------------------------------------|

Guitar Outro
E-----------------------------------------------12----------------------|
B--------------------------13-----------------------13--12--------------|
G-------12---14---14b16---------14~~~-----------------------14ph~~~~----|
D-/14-------------------------------------------------------------------|
A-----------------------------------------------------------------------|
E-----------------------------------------------------------------------|

E---------------------------------------------------15------------------|
B-13--12--13--13b15r13-------------------13--15b17-------15b17~~~~--15--|
G-------------------------14--------------------------------------------|
D-----------------------------14~~~-------------------------------------|
A-----------------------------------------------------------------------|
E-----------------------------------------------------------------------|

E-----------------------------------------------------------|
B-13--12--12--15--15b17--15b17r15--15--13--12--13-----------|
G--------------------------------------------------14~~~~---|
D-----------------------------------------------------------|
A-----------------------------------------------------------|
E-----------------------------------------------------------|

Keyboard Intro
Guitar Intro
Bass (4x)

Keyboard Riff 1 (2x)
You're with your baby
And you're parked alone
On a summer night
You're deep in love

Keyboard Riff 2
But you're deeper in the woods
You think you're doin' alright

Keyboard Riff 1 (2x)
Did you hear that voice
Did you see that face
Or was it just a dream
This can't be real

Keyboard Riff 2
That only happens, babe
On the movie screen

Keyboard Riff 3
Oh, but he's back
He's the man behind the mask
And he's out of control
He's back
The man behind the mask
And he crawled out of his hole

Keyboard Riff 1 (2x)
You're swimmin' with your girl
Out on lovers' lake
And the wind blows cold
It chills your bones

Keyboard Riff 2
But you're still on the make
That's a bad mistake

Keyboard Riff 1 (2x)
But the moon was full
And you had a chance
To be all alone
But you're not alone

Keyboard Riff 4
This is your last dance
And your last romance

Keyboard Riff 3
Yeah, cause he's back
He's the man behind the mask
And he's out of control
He's back
The man behind the mask
And he crawled out of his hole

Guitar Solo

Keyboard Riff 5
Oh, if you see him comin'
Get away if you can
Just keep on runnin'
Run as fast as you can
He's a dangerous, dangerous man

Keyboard Riff 1 (2x)
And he's out tonight
And he's watchin' you
And he knows your house

Keyboard Riff 4
No, don't turn out the lights

Guitar Riff

Keyboard Riff 3
Yeah, cause he's back
He's the man behind the mask
And he's out of control
He's back
The man behind the mask
And he's after your soul

Keyboard Riff 6 (4x)
He's back
He's the man behind the mask
And he's out of control
He's back
The man behind the mask
And he's after your soul
He's back
He's the man behind the mask

Keyboard Riff 6 (4x)
Guitar Outro
And he's out of control
He's back
The man behind the mask
And he's after your soul
            

comments powered by Disqus
↑ Back to top | Alice Cooper Tabs for Hes Back The Man Behind The Mask. Lyrics for acoustic guitar and electric guitar. Tablatures and chords are parodies/interpretations of the original songs. You may use it for private study, scholarship, research or language learning purposes only