» » »

Hard Hearted Alice Tabs (ver.1)

Artists:  A B C D E F G H I J K L M N O P Q R S T U V W X Y Z # 

Hard Hearted Alice Tabs (ver.1)

Alice Cooper
Rating:
0/5 (0 votes)

Tabs too difficult? Try these video lessons and learn fast.
                Band: Alice Cooper

NOTE: The solo is being worked on, don't fear I will have the full song completed. The 
is all acoustic guitar, I think Mike plays it. Glen isn't featured on this song much 
for Mick playing a lot) because he was ill around this time from heavy alcohol 
abuse. Anyways this is an amazing song! Enjoy!

P.S. Forget my first posting of this under the "not logged in user", I didn't sign 
posting this and didn't realize it, sorry.

Keys
b = bend
r = release
\ = slide up neck
/ = slide down neck
h = hammer-on
p = pull-off
~ = hold note
w = whammy bar
v = vibrato
< > = strike the notes in between the symbols while in the bend
D = strum down
U = strum up

“Life,			       coast to coast”
E----------0-------------------------------------0------------------|
B-------------0-------------------------------------0---------------|
G----------------0------------------0------------------0------------|
D-------4------------------4-----2------------4------------------4--|
A----2------------------2-----0------------2------------------2-----|
E-0------------------0------------------0------------------0--------|

“White hot as a ghost,		when you live,	in a countdown”
E--------------------3------------------2---------------2---------------|
B-----------------------3------------3-----3---------------3------------|
G-------0------------------0------2------------------4--------4---------|
D----2------------0------------0------------------4------------------4--|
A-0------------2-------------------------------2------------------2-----|
E-----------3-----------------------------------------------------------|

E---2--------|
B------3-----|
G-4-------4--|
D------------|
A------------|
E------------|

“Time,			       is free as a jailbird”
E----------0-------------------------------------0---------------------|
B-------------0-------------------------------------0------------------|
G----------------0------------------0------------------0---------------|
D-------4------------------4-----2------------4------------------4-----|
A----2------------------2-----0------------2------------------2-----0--|
E-0------------------0------------------0------------------0-----------|

“At least that's what I heard,	when you live,	in a hideout”
E-----------------3------------------2---------------------------------|
B--------------------3------------3-----3------------------------------|
G----0------------------0------2-------------------0--------0--------0-|
D-2------------0------------0-------------------2--------0--------0----|
A-----------2--------------------------------3--------2--------0-------|
E--------3-------------------------------------------------------------|

E----------|
B----------|
G-------0--|
D----0-----|
A----------|
E-3--------|

“Love,			       comes cheap at a swapmeet”
E----------0-------------------------------------0---------------------|
B-------------0-------------------------------------0------------------|
G----------------0------------------0------------------0---------------|
D-------4------------------4-----2------------4------------------4-----|
A----2------------------2-----0------------2------------------2-----0--|
E-0------------------0------------------0------------------0-----------|

“It all comes so dirt cheap, when you live, in a bedroom”
E-----------------3------------------2---------------2---------------|
B--------------------3------------3-----3---------------3------------|
G----0------------------0------2------------------4--------4---------|
D-2------------0------------0------------------4------------------4--|
A-----------2-------------------------------2------------------2-----|
E--------3-----------------------------------------------------------|

E---2--------|
B------3-----|
G-4-------4--|
D------------|
A------------|
E------------|

“Love,			      cuts deep as a razor”
E----------0-------------------------------------0---------------------|
B-------------0-------------------------------------0------------------|
G----------------0------------------0------------------0---------------|
D-------4------------------4-----2------------4------------------4-----|
A----2------------------2-----0------------2------------------2-----0--|
E-0------------------0------------------0------------------0-----------|

“But that ain't amazin',    when you live,  in a cancer”
E-----------------3------------------2---------------------------------|
B--------------------3------------3-----3------------------------------|
G----0------------------0------2-------------------0--------0--------0-|
D-2------------0------------0-------------------2--------0--------0----|
A-----------2--------------------------------3--------2--------0-------|
E--------3-------------------------------------------------------------|

E----------|
B----------|
G-------0--|
D----0-----|
A----------|
E-3--------|

“--------------------------------------------------------------|
E--------------------------------------------------------------|
B-------3--------3--------3--------3---5~~~~~----------5~~~~~--|
G----2--------2--------2--------2------4~~~~~----------4~~~~~--|
D-0------------------------------------2~~~~~----------2~~~~~--|
A----------3--------2--------0---------2~~~~~----------2~~~~~--|
E--------------------------------------0~~~~~----------0~~~~~--|
Ah-ah-ah Ah-ah-ah Ah-ah-ah Ah-ah-ah Ah”

“Mind,				gets scrambled like eggs”
Guitar 3 (Mick Mashbir)
E---------------------------------------------------------------|
B-5~~~---------------------------7--8---7--5~~~-----------------|
G-4~~~---------------------------6--7---6--4~~~-----------------|
D-2~~~---------------------------4--5---4--2~~~-----------------|
A---------------------------------------------------------------|
E---------------------------------------------------------------|

Guitar 2 (Michael Bruce)
E----0------0-------------0------0-------------0------0---------|
B-------0-------0------------0-------0------------0-------0-----|
G------------------0--------------------0--------------------0--|
D-2--------------------2--------------------2-------------------|
A---------------------------------------------------------------|
E---------------------------------------------------------------|

      “Get bruised and erased,		when you live”
Guitar 3
E---------------------------------------------------------------|
B-----------5--7--8--7--5/3~~~-------------3--7~~~--------------|
G-----------4--6--7--6--4/2~~~-------------2--6~~~--------------|
D-----------2--4--5--4--2/0~~~-------------0--4~~~--------------|
A---------------------------------------------------------------|
E---------------------------------------------------------------|

Guitar 2
E----0------0-------------3------3-------------2------2---------|
B-------0-------0------------3-------3------------3-------3-----|
G------------------0--------------------0--------------------2--|
D-2--------------------0--------------------0-------------------|
A---------------------------------------------------------------|
E---------------------------------------------------------------|

“In a brainstorm”
Guitar 3
E-------------------------------------------|
B-7--10~~~----------------------------------|
G-6---9~~~----------------------------------|
D-4---7~~~----------------------------------|
A-------------------------------------------|
E-------------------------------------------|

Guitar 2
E----2------2-------------2------2----------|
B-------3-------3------------3-------3------|
G------------------2--------------------2---|
D-0--------------------0--------------------|
A-------------------------------------------|
E-------------------------------------------|

“Noise, 			seems logically right”
Guitar 3
E---------------------------------------------------------------|
B-12~~~-------------------------14-15--13-12~~~-----------------|
G-11~~~-------------------------13-14--13-11~~~-----------------|
D--9~~~-------------------------11-12--11--9~~~-----------------|
A---------------------------------------------------------------|
E---------------------------------------------------------------|

Guitar 2
E----0------0-------------0------0-------------0------0---------|
B-------0-------0------------0-------0------------0-------0-----|
G------------------0--------------------0--------------------0--|
D-2--------------------2--------------------2-------------------|
A---------------------------------------------------------------|
E---------------------------------------------------------------|

      “Ringing ears in the night,	when you live”
Guitar 3
E---------------------------------------------------------------|
B----------12-14-15-14-3~~~----------------3--7~~~--------------|
G----------11-13-14-13-2~~~----------------2--6~~~--------------|
D-----------9-11-12-11-0~~~----------------0--4~~~--------------|
A---------------------------------------------------------------|
E---------------------------------------------------------------|

Guitar 2
E----0------0-------------3------3-------------2------2---------|
B-------0-------0------------3-------3------------3-------3-----|
G------------------0--------------------0--------------------2--|
D-2--------------------0--------------------0-------------------|
A---------------------------------------------------------------|
E---------------------------------------------------------------|

“In an airport”
Guitar 3
E-------------------------------------------|
B-7--8~~~-----------------------------------|
G-6--7~~~-----------------------------------|
D-4--5~~~-----------------------------------|
A-------------------------------------------|
E-------------------------------------------|

Guitar 2
E----2------2-------------2------2----------|
B-------3-------3------------3-------3------|
G------------------2--------------------2---|
D-0--------------------0--------------------|
A-------------------------------------------|
E-------------------------------------------|

“Ah-ah-ah Ah-ah-ah Ah-ah-ah Ah-ah-ah Ah”
Guitar 1
E-10/---22~~~--------------------------|
B--------------------------------------|
G--------------------------------------|
D--------------------------------------|
A--------------------------------------|
E--------------------------------------|

Guitar 2
E--------------------------------------|
B-------3--------3--------3--------3---|
G----2--------2--------2--------2------|
D-0------------------------------------|
A----------3--------2--------0---------|
E--------------------------------------|

“Hard  hearted Alice, 	is what we want to be”
E---------------------------------------------|
B-13----12-----5~~~-----10~~~-----------------|
G-12----11-----4~~~------9~~~-----------------|
D-10-----9-----2~~~------7~~~-----------------|
A---------------------------------------------|
E---------------------------------------------|

“Hard  hearted Alice,	is what you want to see”
E----------------------------------------------------------------|
B-8-----12-----5~~~-----8~~~----------------12~~~----------------|
G-7-----11-----4~~~-----7~~~----------------11~~~----------------|
D-5------9-----2~~~-----5~~~-----------------9~~~-------------2--|
A-------------------------------------------------------------2--|
E----------------------------------------------------3/14\3---0--|

During Organ Solo
E-----------------------|
B-----------------------|
G--------------------4--| repeat
D-------2------------2--|
A-------2------------2--|
E-0--0--0--0--0---0--0--|

During Solo
Guitar 3 (Mick Mashbir)
E--------------------------------------|
B-5--8---10~~~-----------10--8---5~~~--|
G-4--7----9~~~------------9--7---4~~~--| 2x
D-2--5----7~~~------------7--5---2~~~--|
A--------------------------------------|
E--------------------------------------|

E--------|
B-5--8---|
G-4--7---|
D-2--5---|
A--------|
E--------|

“Hard  hearted Alice, 	is what we want to be”
Guitar 1
E-19----17-----12~~-----12---/17--------------|
B---------------------------------------------|
G---------------------------------------------|
D---------------------------------------------|
A---------------------------------------------|
E---------------------------------------------|

Guitars 2 and 3
E---------------------------------------------|
B-13----12-----5~~~-----10~~~-----------------|
G-12----11-----4~~~------9~~~-----------------|
D-10-----9-----2~~~------7~~~-----------------|
A---------------------------------------------|
E---------------------------------------------|

“Hard  hearted Alice,	is what you want to see”
Guitar 1
E-15---14------12~~~---12---/15-----15---/17---------|
B----------------------------------------------------|
G----------------------------------------------------|
D----------------------------------------------------|
A----------------------------------------------------|
E----------------------------------------------------|

Guitars 2 and 3
E----------------------------------------------------|
B-8-----12-----5~~~-----8~~~----------------12~~~----|
G-7-----11-----4~~~-----7~~~----------------11~~~----|
D-5------9-----2~~~-----5~~~-----------------9~~~----|
A----------------------------------------------------|
E----------------------------------------------------|

Outro
Guitar 2
E-3---2-------2-----------------------------------3---2-------2-------|
B---------5-------5---3---5---3-------2---3---5-----------5-------5---|
G---------------------------------4-----------------------------------|
D---------------------------------------------------------------------|
A---------------------------------------------------------------------|
E---------------------------------------------------------------------|

Guitar 3
E---------------------------------------------------------------------|
B----------------------------------7---8---7---5~~~-------------------|
G----------------------------------6---7---6---4~~~-------------------|
D----------------------------------4---5---4---2~~~-------------------|
A---------------------------------------------------------------------|
E---------------------------------------------------------------------|

Guitar 1
E---------------------------------------------------------------------|
B---------------------------------------------3---3---/7--------------|
G---------------------------------------------------------------------|
D---------------------------------------------------------------------|
A---------------------------------------------------------------------|
E---------------------------------------------------------------------|

Guitar 2
E-----------------------------------------3-----------2---3p2-------5-|
B-3---5---3-------2---3---2-------3---5-------5---3-------------3-----|
G-------------4---------------4---------------------------------------|
D---------------------------------------------------------------------|
A---------------------------------------------------------------------|
E---------------------------------------------------------------------|

Guitar 3
E---------------------------------------------------------------------|
B-------------7---8---5---2~~~--------------------------7~~~----------|
G-------------6---7---4---3~~~--------------------------6~~~----------|
D-------------4---5---2---0~~~--------------------------4~~~----------|
A---------------------------------------------------------------------|
E---------------------------------------------------------------------|

Guitar 1
E---------------------------------------------------------------------|
B------7---7---5-----5---7---10---10~~~--------------------15b17~~~---|
G---------------------------------------------------------------------|
D---------------------------------------------------------------------|
A---------------------------------------------------------------------|
E---------------------------------------------------------------------|

Guitar 2
E-2---5---3---------3----5----2----5~~~-------------------------------|
B--------------5---------------------------------------------5~~~~~---|
G------------------------------------------------------------4~~~~~---|
D------------------------------------------------------------2~~~~~---|
A------------------------------------------------------------2~~~~~---|
E------------------------------------------------------------0~~~~~---|

Guitar 3
E---------------------------------------------------------------------|
B--------------5~~~------8-----------------------------------5~~~~~---|
G--------------4~~~------7-----------------------------------4~~~~~---|
D--------------2~~~------5-----------------------------------2~~~~~---|
A------------------------------------------------------------2~~~~~---|
E------------------------------------------------------------0~~~~~---|
            
Tabs too difficult? Try these video lessons and learn fast.




comments powered by Disqus
↑ Back to top | Tablatures and chords are parodies/interpretations of the original songs. You may use it for private study, scholarship, research or language learning purposes only