» » »

Gimme Tabs (ver.2)

Artists:  A B C D E F G H I J K L M N O P Q R S T U V W X Y Z # 

Gimme Tabs (ver.2)

Alice Cooper
Rating:
0/5 (0 votes)

Hard to play? Try these video lessons and learn fast.
                "(1)
-------------------------------------------------------------------------------
                             GIMME - Alice Cooper
-------------------------------------------------------------------------------

Tuning: eb Bb Gb Db Ab C#

Main Riff
e|----------------------------|
B|----------------------------|
G|----------------------------|
D|-0-0--0-0--0-0--0--0-3-/4-3-|
A|-0-0--0-0--0-0--0--0-3-/4-3-|
E|-0-0--0-0--0-0--0--0-3-/4-3-|
-|
e|----------------------------|
B|----------------------------|
G|---------------------10+^10-|
D|----------------------------|
A|----------------------------|
E|-0+0+-0+0+-0+0+-0+-0+-------|

Verse:
e|-----------------------|
B|-----------------------|
G|-7--6--5---------------|
D|-x--x--x-0-0-0--0-0-0--|
A|-5--4--3-0-0-0--0-0-0--|
E|---------0-0-0--0-0-0--|
-|                       |
e|-----------------------|
B|-----------------------|
G|-7--6--5---------------|
D|-x--x--x---------------|
A|-5--4--3---------------|
E|-0-------0+0+0+-0+0+0+-|

Pre-chorus:
e|----------------------------------|--------------|
B|----------------------------------|--------------|
G|----------------------------------|--------------|
D|-3---------------/5---------------|-7--6--5--3---|
A|-3---------------/5---------------|-7--6--5--3---|
E|-3---------------/5---------------|-7--6--5--3---|
-|                                                 |
e|----------------------------------|--------------|
B|----------------------------------|--------------|
G|----------------------------------|--------------|
D|-3-3-3-3-3-3-3-3-/5-5-5-5-5-5-5-5-|-777666555333-|
A|-3-3-3-3-3-3-3-3-/5-5-5-5-5-5-5-5-|-777666555333-|
E|-3-3-3-3-3-3-3-3-/5-5-5-5-5-5-5-5-|-777666555333-|

e|------------------------------|---------------------------------------|
B|------------------------------|---------------------------------------|
G|---10----7--------------------|---------------------------------------|
D|-0-10----7----5-5-5-5-5-------|-7-8-7-8-7-8-7-8-7--8--5--3/4-3-2------|
A|-0-8-----5----5-5-5-5-5---3h5-|-7-8-7-8-7-8-7-8-7--8--5--3/4-3-2------|
E|-0------------5-5-5-5-5-5-----|-7-8-7-8-7-8-7-8-7--8--5--3/4-3-2------|
-|                              |                                       |
e|------------------------------|---------------------------------------|
B|------------------------------|---------------------------------------|
G|-------107777-----------------|-14-15-14-15-14-15-14-14-15-14-12-10---|
D|-------107777-5-5-5-5-5-3-3-3-|---------------------------------------|
A|-------8-5555-5-5-5-5-5-3-3-3-|---------------------------------------|
E|-0-0----------5-5-5-5-5-3-3-3-|-------------------------------------0+|


| /  slide up
| \  slide down
| h  hammer-on
| p  pull-off
| ~  vibrato
| +  harmonic
| x  Mute note
===============================================================================
"            
Hard to play? Try these video lessons and learn fast. | Correct




comments powered by Disqus
↑ Back to top | Tablatures and chords are parodies/interpretations of the original songs. You may use it for private study, scholarship, research or language learning purposes only