>
 >
Gimme'

Gimme' Guitar Tabs

Alice Cooper - Gimme' chords, tabs, tablatures, lyrics

Guitar lessons | Add/correct | Request | Top 50 tabs Artists:  A B C D E F G H I J K L M N O P Q R S T U V W X Y Z 0-9

Gimme' Guitar Tabs – Alice Cooper

CD, Sheet music, Poster

Do you like Gimme'? Share with your friends now
Tabs
                                    Gimme                                       


                                                                    Alice Cooper
guitar 1




     W                   W                   E  Q    E  Q    E  E   
E||-------------------|-------------------|------------------------|
B||-------------------|-------------------|------------------------|
G||-------------------|-------------------|------------------------|
D||-------------------|-------------------|------------------------|
A||-------------------|-------------------|--4--4----4--4----4--4--|
E||-------------------|-------------------|--4--4----4--4----4--4--|


  E  Q    E  E  E  Q       E  Q    E  Q    E  E     E  Q    E  E  E  Q     
------------------------|------------------------|------------------------|
------------------------|------------------------|------------------------|
------------------------|------------------------|------------------------|
-------------2-----2----|------------------------|-------------2-----2----|
--L--4----4--2--4--2----|--4--4----4--4----4--4--|--L--4----4--2--4--2----|
--L--4----4--0--4--0----|--4--4----4--4----4--4--|--L--4----4--0--4--0----|


  E  Q    E  Q    E  E     E  Q    E  E  E  Q       E  Q    E  Q    E  E   
------------------------|------------------------|------------------------|
------------------------|------------------------|------------------------|
------------------------|------------------------|------------------------|
------------------------|-------------2-----2----|------------------------|
--4--4----4--4----4--4--|--L--4----4--2--4--2----|--4--4----4--4----4--4--|
--4--4----4--4----4--4--|--L--4----4--0--4--0----|--4--4----4--4----4--4--|


  E  Q    E  E  E  Q       Q.     Q.     Q       E  E  Q    E  E  Q     
------------------------|---------------------|------------------------|
------------------------|---------------------|------------------------|
------------------------|---------------------|------------------------|
-------------2-----2----|---------------------|------------------------|
--L--4----4--2--4--2----|--4------3------2----|--4--4--4----4--4--4----|
--L--4----4--0--4--0----|---------------------|--4--4--4----4--4--4----|


  Q.     Q.     Q       E  E  Q    E  E  Q       Q.     Q.     Q     
---------------------|------------------------|---------------------|
---------------------|------------------------|---------------------|
---------------------|------------------------|---------------------|
---------------------|------------------------|---------------------|
--4------3------2----|--4--4--4----4--4--4----|--4------3------2----|
---------------------|--4--4--4----4--4--4----|---------------------|


  E  E  Q    E  E  Q       Q.     Q.     Q       E  E  Q    E  E  Q     
------------------------|---------------------|------------------------|
------------------------|---------------------|------------------------|
------------------------|---------------------|------------------------|
------------------------|---------------------|------------------------|
--4--4--4----4--4--4----|--4------3------2----|--4--4--4----4--4--4----|
--4--4--4----4--4--4----|---------------------|--4--4--4----4--4--4----|


  Q.     Q.     Q       E  E  Q    E  E  Q       Q.     Q.     Q     
---------------------|------------------------|---------------------|
---------------------|------------------------|---------------------|
---------------------|------------------------|---------------------|
---------------------|------------------------|---------------------|
--4------3------2----|--4--4--4----4--4--4----|--4------3------2----|
---------------------|--4--4--4----4--4--4----|---------------------|


  E  E  Q    E  E  Q       Q.     Q.     Q       E  E  Q    E  E  Q     
------------------------|---------------------|------------------------|
------------------------|---------------------|------------------------|
------------------------|---------------------|------------------------|
------------------------|---------------------|------------------------|
--4--4--4----4--4--4----|--4------3------2----|--4--4--4----4--4--4----|
--4--4--4----4--4--4----|---------------------|--4--4--4----4--4--4----|


  Q.     Q.     Q       E  E  Q    E  E  Q       E  Q    E  Q    E  E   
---------------------|------------------------|------------------------|
---------------------|------------------------|------------------------|
---------------------|------------------------|------------------------|
---------------------|------------------------|------------------------|
--4------3------2----|--4--4--4----4--4--4----|--4--4----4--4----4--4--|
---------------------|--4--4--4----4--4--4----|--4--4----4--4----4--4--|


  E  Q    E  E  E  Q       E  Q    E  Q    E  E     E  Q    E  E  E  Q     
------------------------|------------------------|------------------------|
------------------------|------------------------|------------------------|
------------------------|------------------------|------------------------|
-------------2-----2----|------------------------|-------------2-----2----|
--L--4----4--2--4--2----|--4--4----4--4----4--4--|--L--4----4--2--4--2----|
--L--4----4--0--4--0----|--4--4----4--4----4--4--|--L--4----4--0--4--0----|


  E  Q    E  Q    E  E     E  Q    E  E  E  Q       E  Q    E  Q    E  E   
------------------------|------------------------|------------------------|
------------------------|------------------------|------------------------|
------------------------|------------------------|------------------------|
------------------------|-------------2-----2----|------------------------|
--4--4----4--4----4--4--|--L--4----4--2--4--2----|--4--4----4--4----4--4--|
--4--4----4--4----4--4--|--L--4----4--0--4--0----|--4--4----4--4----4--4--|


  E  Q    E  E  E  Q       Q.     Q.     Q       E  E  Q    E  E  Q     
------------------------|---------------------|------------------------|
------------------------|---------------------|------------------------|
------------------------|---------------------|------------------------|
-------------2-----2----|---------------------|------------------------|
--L--4----4--2--4--2----|--4------3------2----|--4--4--4----4--4--4----|
--L--4----4--0--4--0----|---------------------|--4--4--4----4--4--4----|


  Q.     Q.     Q       E  E  Q    E  E  Q       Q.     Q.     Q     
---------------------|------------------------|---------------------|
---------------------|------------------------|---------------------|
---------------------|------------------------|---------------------|
---------------------|------------------------|---------------------|
--4------3------2----|--4--4--4----4--4--4----|--4------3------2----|
---------------------|--4--4--4----4--4--4----|---------------------|


  E  E  Q    E  E  Q       Q.     Q.     Q       E  E  Q    E  E  Q     
------------------------|---------------------|------------------------|
------------------------|---------------------|------------------------|
------------------------|---------------------|------------------------|
------------------------|---------------------|------------------------|
--4--4--4----4--4--4----|--4------3------2----|--4--4--4----4--4--4----|
--4--4--4----4--4--4----|---------------------|--4--4--4----4--4--4----|


  Q.     Q.     Q       E  E  Q    E  E  Q       Q.     Q.     Q     
---------------------|------------------------|---------------------|
---------------------|------------------------|---------------------|
---------------------|------------------------|---------------------|
---------------------|------------------------|---------------------|
--4------3------2----|--4--4--4----4--4--4----|--4------3------2----|
---------------------|--4--4--4----4--4--4----|---------------------|


  E  E  Q    E  E  Q       Q.     Q.     Q       E  E  Q    E  E  Q     
------------------------|---------------------|------------------------|
------------------------|---------------------|------------------------|
------------------------|---------------------|------------------------|
------------------------|---------------------|------------------------|
--4--4--4----4--4--4----|--4------3------2----|--4--4--4----4--4--4----|
--4--4--4----4--4--4----|---------------------|--4--4--4----4--4--4----|


  Q.     Q.     Q       E  E  Q    E  E  E  E     W                 
---------------------|-------------------------|-------------------|
---------------------|-------------------------|-------------------|
---------------------|-------------------------|-------------------|
---------------------|-------------------------|--2----------------|
--4------3------2----|--4--4--4----4--4--4--4--|--2----------------|
---------------------|--4--4--4----4--4--4--4--|--0----------------|


  W                   W                   W                 
-------------------|-------------------|-------------------|
-------------------|-------------------|-------------------|
-------------------|-------------------|-------------------|
--L----------------|--4----------------|--L----------------|
--L----------------|--4----------------|--L----------------|
--L----------------|--2----------------|--L----------------|


  Q.     Q.     Q       E  E  Q    E  E  Q       Q.     Q.     Q     
---------------------|------------------------|---------------------|
---------------------|------------------------|---------------------|
---------------------|------------------------|---------------------|
--6------5------4----|------------------------|--6------5------4----|
--6------5------4----|--4--4--4----4--4--4----|--6------5------4----|
--4------3------2----|--4--4--4----4--4--4----|--4------3------2----|


  E  E  Q    E  E  E  E     W                   W                 
-------------------------|-------------------|-------------------|
-------------------------|-------------------|-------------------|
-------------------------|-------------------|-------------------|
-------------------------|--2----------------|--L----------------|
--4--4--4----4--4--4--4--|--2----------------|--L----------------|
--4--4--4----4--4--4--4--|--0----------------|--L----------------|


  W                   W                   W                 
-------------------|-------------------|-------------------|
-------------------|-------------------|-------------------|
-------------------|-------------------|-------------------|
--4----------------|--L----------------|-------------------|
--4----------------|--L----------------|--4----------------|
--2----------------|--L----------------|--4----------------|


  Q    Q    Q    Q       W                   H        E  E  E  E   
----------------------|-------------------|-----------------------|
----------------------|-------------------|-----------------------|
----------------------|-------------------|-----------------4--6--|
-------7----7----4----|--4----------------|--2--------2--4--------|
--L----7----7----4----|--4----------------|--2--------------------|
--L----5----5----2----|--2----------------|--0--------------------|


  W                   Q    Q    Q    Q       W                 
-------------------|----------------------|-------------------|
-------------------|----------------------|-------------------|
-------------------|----------------------|-------------------|
-------------------|-------7----7----4----|--4----------------|
--4----------------|--L----7----7----4----|--4----------------|
--4----------------|--L----5----5----2----|--2----------------|


  H        E  E  E  E     W                   Q    Q    Q    Q     
-----------------------|-------------------|----------------------|
-----------------------|-------------------|----------------------|
-----------------4--6--|-------------------|----------------------|
--2--------2--4--------|-------------------|-------7----7----4----|
--2--------------------|--4----------------|--L----7----7----4----|
--0--------------------|--4----------------|--L----5----5----2----|


  W                   H        E  E  E  E     Q    Q    Q    Q     
-------------------|-----------------------|----------------------|
-------------------|-----------------------|----------------------|
-------------------|-----------------4--6--|----------------------|
--4----------------|--2--------2--4--------|--6----7----6----7----|
--4----------------|--2--------------------|--6----7----6----7----|
--2----------------|--0--------------------|--4----5----4----5----|


  Q    Q    Q    Q       Q    Q    Q    Q       Q    Q    Q    Q     
----------------------|----------------------|----------------------|
----------------------|----------------------|----------------------|
----------------------|----------------------|----------------------|
--6----7----6----7----|--6----7----6----7----|--6----4----2---------|
--6----7----6----7----|--6----7----6----7----|--6----4----2----6----|
--4----5----4----5----|--4----5----4----5----|--4----2----0----6----|


  E  Q    E  Q    E  E     E  Q    E  E  E  Q       E  Q    E  Q    E  E   
------------------------|------------------------|------------------------|
------------------------|------------------------|------------------------|
------------------------|------------------------|------------------------|
------------------------|-------------2-----2----|------------------------|
--4--4----4--4----4--4--|--L--4----4--2--4--2----|--4--4----4--4----4--4--|
--4--4----4--4----4--4--|--L--4----4--0--4--0----|--4--4----4--4----4--4--|


  E  Q    E  E  E  Q       E  Q    E  Q    E  E     E  Q    E  E  E  Q     
------------------------|------------------------|------------------------|
------------------------|------------------------|------------------------|
------------------------|------------------------|------------------------|
-------------2-----2----|------------------------|-------------2-----2----|
--L--4----4--2--4--2----|--4--4----4--4----4--4--|--L--4----4--2--4--2----|
--L--4----4--0--4--0----|--4--4----4--4----4--4--|--L--4----4--0--4--0----|


  E  Q    E  Q    E  E     E  Q    E  E  E  Q       Q.     Q.     Q     
------------------------|------------------------|---------------------|
------------------------|------------------------|---------------------|
------------------------|------------------------|---------------------|
------------------------|-------------2-----2----|---------------------|
--4--4----4--4----4--4--|--L--4----4--2--4--2----|--4------3------2----|
--4--4----4--4----4--4--|--L--4----4--0--4--0----|---------------------|


  E  E  Q    E  E  Q       Q.     Q.     Q       E  E  Q    E  E  Q     
------------------------|---------------------|------------------------|
------------------------|---------------------|------------------------|
------------------------|---------------------|------------------------|
------------------------|---------------------|------------------------|
--4--4--4----4--4--4----|--4------3------2----|--4--4--4----4--4--4----|
--4--4--4----4--4--4----|---------------------|--4--4--4----4--4--4----|


  Q.     Q.     Q       E  E  Q    E  E  Q       Q.     Q.     Q     
---------------------|------------------------|---------------------|
---------------------|------------------------|---------------------|
---------------------|------------------------|---------------------|
---------------------|------------------------|---------------------|
--4------3------2----|--4--4--4----4--4--4----|--4------3------2----|
---------------------|--4--4--4----4--4--4----|---------------------|


  E  E  Q    E  E  Q       Q.     Q.     Q       E  E  Q    E  E  Q     
------------------------|---------------------|------------------------|
------------------------|---------------------|------------------------|
------------------------|---------------------|------------------------|
------------------------|---------------------|------------------------|
--4--4--4----4--4--4----|--4------3------2----|--4--4--4----4--4--4----|
--4--4--4----4--4--4----|---------------------|--4--4--4----4--4--4----|


  Q.     Q.     Q       E  E  Q    E  E  Q       Q.     Q.     Q     
---------------------|------------------------|---------------------|
---------------------|------------------------|---------------------|
---------------------|------------------------|---------------------|
---------------------|------------------------|---------------------|
--4------3------2----|--4--4--4----4--4--4----|--4------3------2----|
---------------------|--4--4--4----4--4--4----|---------------------|


  E  E  Q    E  E  Q       Q.     Q.     Q       E  E  Q    E  E  E  E   
------------------------|---------------------|-------------------------|
------------------------|---------------------|-------------------------|
------------------------|---------------------|-------------------------|
------------------------|---------------------|-------------------------|
--4--4--4----4--4--4----|--4------3------2----|--4--4--4----4--4--4--4--|
--4--4--4----4--4--4----|---------------------|--4--4--4----4--4--4--4--|


  W                   W                   W                   W                 
-------------------|-------------------|-------------------|-------------------|
-------------------|-------------------|-------------------|-------------------|
-------------------|-------------------|-------------------|-------------------|
--2----------------|--L----------------|--4----------------|--L----------------|
--2----------------|--L----------------|--4----------------|--L----------------|
--0----------------|--L----------------|--2----------------|--L----------------|


  Q.     Q.     Q       E  E  Q    E  E  Q       Q.     Q.     Q     
---------------------|------------------------|---------------------|
---------------------|------------------------|---------------------|
---------------------|------------------------|---------------------|
--6------5------4----|------------------------|--6------5------4----|
--6------5------4----|--4--4--4----4--4--4----|--6------5------4----|
--4------3------2----|--4--4--4----4--4--4----|--4------3------2----|


  E  E  Q    E  E  E  E     W                   W                 
-------------------------|-------------------|-------------------|
-------------------------|-------------------|-------------------|
-------------------------|-------------------|-------------------|
-------------------------|--2----------------|--L----------------|
--4--4--4----4--4--4--4--|--2----------------|--L----------------|
--4--4--4----4--4--4--4--|--0----------------|--L----------------|


  W                   W                   W                 
-------------------|-------------------|-------------------|
-------------------|-------------------|-------------------|
-------------------|-------------------|-------------------|
--4----------------|--L----------------|-------------------|
--4----------------|--L----------------|--4----------------|
--2----------------|--L----------------|--4----------------|


  Q    Q    Q    Q       W                   H        E  E  E  E   
----------------------|-------------------|-----------------------|
----------------------|-------------------|-----------------------|
----------------------|-------------------|-----------------4--6--|
-------7----7----4----|--4----------------|--2--------2--4--------|
--L----7----7----4----|--4----------------|--2--------------------|
--L----5----5----2----|--2----------------|--0--------------------|


  W                   Q    Q    Q    Q       W                 
-------------------|----------------------|-------------------|
-------------------|----------------------|-------------------|
-------------------|----------------------|-------------------|
-------------------|-------7----7----4----|--4----------------|
--4----------------|--L----7----7----4----|--4----------------|
--4----------------|--L----5----5----2----|--2----------------|


  H        E  E  E  E     W                   Q    Q    Q    Q     
-----------------------|-------------------|----------------------|
-----------------------|-------------------|----------------------|
-----------------4--6--|-------------------|----------------------|
--2--------2--4--------|-------------------|-------7----7----4----|
--2--------------------|--4----------------|--L----7----7----4----|
--0--------------------|--4----------------|--L----5----5----2----|


  W                   H        E  E  E  E     Q    Q    Q    Q     
-------------------|-----------------------|----------------------|
-------------------|-----------------------|----------------------|
-------------------|-----------------4--6--|----------------------|
--4----------------|--2--------2--4--------|--6----7----6----7----|
--4----------------|--2--------------------|--6----7----6----7----|
--2----------------|--0--------------------|--4----5----4----5----|


  Q    Q    Q    Q       Q    Q    Q    Q       Q    Q    Q    Q     
----------------------|----------------------|----------------------|
----------------------|----------------------|----------------------|
----------------------|----------------------|----------------------|
--6----7----6----7----|--6----7----6----7----|--6----4----2---------|
--6----7----6----7----|--6----7----6----7----|--6----4----2----6----|
--4----5----4----5----|--4----5----4----5----|--4----2----0----6----|


  E  E  E  E  E  E  E  E     E  E  E  E  E  E  Q       E  E  E  E  E  E  E  E   
--------------------------|-------------------------|--------------------------|
--------------------------|-------------------------|--------------------------|
--------------------------|-------------------------|--------------------------|
--------------------------|--------------2-----2----|--------------------------|
--4--4-----4--4-----4--4--|-----4--4-----2--4--2----|--4--4-----4--4-----4--4--|
--4--4-----4--4-----4--4--|-----4--4-----0--4--0----|--4--4-----4--4-----4--4--|


  W                   E  E  E  E  E  E  E  E     E  E  E  E  E  E  Q     
-------------------|--------------------------|-------------------------|
-------------------|--------------------------|-------------------------|
-------------------|--------------------------|-------------------------|
-------------------|--------------------------|--------------2-----2----|
-------------------|--4--4-----4--4-----4--4--|-----4--4-----2--4--2----|
-------------------|--4--4-----4--4-----4--4--|-----4--4-----0--4--0----|


  E  E  E  E  E  E  E  E     W                   E  E  E  E  E  E  E  E   
--------------------------|-------------------|--------------------------|
--------------------------|-------------------|--------------------------|
--------------------------|-------------------|--------------------------|
--------------------------|-------------------|--------------------------|
--4--4-----4--4-----4--4--|-------------------|--4--4-----4--4-----4--4--|
--4--4-----4--4-----4--4--|-------------------|--4--4-----4--4-----4--4--|


  E  E  E  E  E  E  Q       E  E  E  E  E  E  E  E     W                 
-------------------------|--------------------------|-------------------|
-------------------------|--------------------------|-------------------|
-------------------------|--------------------------|-------------------|
--------------2-----2----|--------------------------|-------------------|
-----4--4-----2--4--2----|--4--4-----4--4-----4--4--|-------------------|
-----4--4-----0--4--0----|--4--4-----4--4-----4--4--|-------------------|


  E  E  E  E  E  E  E  E     E  E  E  E  E  E  Q       E  E  E  E  E  E  E  E   
--------------------------|-------------------------|--------------------------|
--------------------------|-------------------------|--------------------------|
--------------------------|-------------------------|--------------------------|
--------------------------|--------------2-----2----|--------------------------|
--4--4-----4--4-----4--4--|-----4--4-----2--4--2----|--4--4-----4--4-----4--4--|
--4--4-----4--4-----4--4--|-----4--4-----0--4--0----|--4--4-----4--4-----4--4--|


  W                   W                   W                   W                 
-------------------|-------------------|-------------------|-------------------|
-------------------|-------------------|-------------------|-------------------|
-------------------|-------------------|-------------------|-------------------|
-------------------|--2----------------|--L----------------|--4----------------|
-------------------|--2----------------|--L----------------|--4----------------|
-------------------|--0----------------|--L----------------|--2----------------|


  W                   Q.     Q.     Q       E  E  Q    E  E  Q     
-------------------|---------------------|------------------------|
-------------------|---------------------|------------------------|
-------------------|---------------------|------------------------|
--L----------------|--6------5------4----|------------------------|
--L----------------|--6------5------4----|--4--4--4----4--4--4----|
--L----------------|--4------3------2----|--4--4--4----4--4--4----|


  Q.     Q.     Q       E  E  Q    E  E  E  E     W                 
---------------------|-------------------------|-------------------|
---------------------|-------------------------|-------------------|
---------------------|-------------------------|-------------------|
--6------5------4----|-------------------------|--2----------------|
--6------5------4----|--4--4--4----4--4--4--4--|--2----------------|
--4------3------2----|--4--4--4----4--4--4--4--|--0----------------|


  W                   W                   W                   W                 
-------------------|-------------------|-------------------|-------------------|
-------------------|-------------------|-------------------|-------------------|
-------------------|-------------------|-------------------|-------------------|
--L----------------|--4----------------|--L----------------|-------------------|
--L----------------|--4----------------|--L----------------|--4----------------|
--L----------------|--2----------------|--L----------------|--4----------------|


  Q    Q    Q    Q       W                   H        E  E  E  E   
----------------------|-------------------|-----------------------|
----------------------|-------------------|-----------------------|
----------------------|-------------------|-----------------4--6--|
-------7----7----4----|--4----------------|--2--------2--4--------|
--L----7----7----4----|--4----------------|--2--------------------|
--L----5----5----2----|--2----------------|--0--------------------|


  W                   Q    Q    Q    Q       W                 
-------------------|----------------------|-------------------|
-------------------|----------------------|-------------------|
-------------------|----------------------|-------------------|
-------------------|-------7----7----4----|--4----------------|
--4----------------|--L----7----7----4----|--4----------------|
--4----------------|--L----5----5----2----|--2----------------|


  H        E  E  E  E     W                   Q    Q    Q    Q     
-----------------------|-------------------|----------------------|
-----------------------|-------------------|----------------------|
-----------------4--6--|-------------------|----------------------|
--2--------2--4--------|-------------------|-------7----7----4----|
--2--------------------|--4----------------|--L----7----7----4----|
--0--------------------|--4----------------|--L----5----5----2----|


  W                   H        E  E  E  E     W                 
-------------------|-----------------------|-------------------|
-------------------|-----------------------|-------------------|
-------------------|-----------------4--6--|-------------------|
--4----------------|--2--------2--4--------|-------------------|
--4----------------|--2--------------------|--4----------------|
--2----------------|--0--------------------|--4----------------|


  Q    Q    Q    Q       W                   H        E  E  E  E   
----------------------|-------------------|-----------------------|
----------------------|-------------------|-----------------------|
----------------------|-------------------|-----------------4--6--|
-------7----7----4----|--4----------------|--2--------2--4--------|
--L----7----7----4----|--4----------------|--2--------------------|
--L----5----5----2----|--2----------------|--0--------------------|


  W                   Q    Q    Q    Q       W                 
-------------------|----------------------|-------------------|
-------------------|----------------------|-------------------|
-------------------|----------------------|-------------------|
-------------------|-------7----7----4----|--4----------------|
--4----------------|--L----7----7----4----|--4----------------|
--4----------------|--L----5----5----2----|--2----------------|


  H        E  E  E  E     W                   Q    Q    Q    Q     
-----------------------|-------------------|----------------------|
-----------------------|-------------------|----------------------|
-----------------4--6--|-------------------|----------------------|
--2--------2--4--------|-------------------|-------7----7----4----|
--2--------------------|--4----------------|--L----7----7----4----|
--0--------------------|--4----------------|--L----5----5----2----|


  W                   H        E  E  E  E     W                 
-------------------|-----------------------|-------------------|
-------------------|-----------------------|-------------------|
-------------------|-----------------4--6--|-------------------|
--4----------------|--2--------2--4--------|-------------------|
--4----------------|--2--------------------|--4----------------|
--2----------------|--0--------------------|--4----------------|


  Q    Q    Q    Q       W                   H        E  E  E  E   
----------------------|-------------------|-----------------------|
----------------------|-------------------|-----------------------|
----------------------|-------------------|-----------------4--6--|
-------7----7----4----|--4----------------|--2--------2--4--------|
--L----7----7----4----|--4----------------|--2--------------------|
--L----5----5----2----|--2----------------|--0--------------------|


  Q    Q    Q    Q       Q    Q    Q    Q       Q    Q    Q    Q     
----------------------|----------------------|----------------------|
----------------------|----------------------|----------------------|
----------------------|----------------------|----------------------|
--6----7----6----7----|--6----7----6----7----|--6----7----6----7----|
--6----7----6----7----|--6----7----6----7----|--6----7----6----7----|
--4----5----4----5----|--4----5----4----5----|--4----5----4----5----|


  Q    Q    Q    Q       E  Q    E  Q    E  E     E  Q    E  E  E  Q     
----------------------|------------------------|------------------------|
----------------------|------------------------|------------------------|
----------------------|------------------------|------------------------|
--6----4----2---------|------------------------|-------------2-----2----|
--6----4----2----6----|--4--4----4--4----4--4--|--L--4----4--2--4--2----|
--4----2----0----6----|--4--4----4--4----4--4--|--L--4----4--0--4--0----|


  E  Q    E  Q    E  E     E  Q    E  E  E  Q       E  Q    E  Q    E  E   
------------------------|------------------------|------------------------|
------------------------|------------------------|------------------------|
------------------------|------------------------|------------------------|
------------------------|-------------2-----2----|------------------------|
--4--4----4--4----4--4--|--L--4----4--2--4--2----|--4--4----4--4----4--4--|
--4--4----4--4----4--4--|--L--4----4--0--4--0----|--4--4----4--4----4--4--|


  E  Q    E  E  E  Q       E  Q    E  Q    E  E     E  Q    E  E  E  Q      
------------------------|------------------------|------------------------||
------------------------|------------------------|------------------------||
------------------------|------------------------|------------------------||
-------------2-----2----|------------------------|-------------2-----2----||
--L--4----4--2--4--2----|--4--4----4--4----4--4--|--L--4----4--2--4--2----||
--L--4----4--0--4--0----|--4--4----4--4----4--4--|--L--4----4--0--4--0----||




Duration Legend
---------------
W - whole
H - half
Q - quarter
E - 8th
S - 16th
T - 32nd
X - 64th
. - note dotted
|-n-|  - n-tuplets


Tablature Legend
----------------
L - tied note
x - dead note
g - grace note
(n) - ghost note
> - accentuded note
NH - natural harmonic
AH - artificial harmonic
TH - tapped harmonic
SH - semi harmonic
PH - pitch harmonic
h - hammer on
p - pull off
b - bend
br - bendRelease
pb - preBend
pbr - preBendRelease
brb - bendReleaseBend
\n/ - tremolo bar dip
\n - tremolo bar dive
-/n - tremolo bar Release up
/n\ - tremolo bar inverted dip
/n - tremolo bar return
-\n - tremolo bar Release down
S - shift slide
s - legato slide
/ -  slide into from below or out of upwards
\ -  slide into from above or out of downwards
~ - vibrato
W - wide vibrato
tr - trill
TP - tremolo picking
T - tapping
S - slap
P - pop
< - fade in
^ - brush up
v - brush down





Comments


Popular Alice Cooper tabs & chords
Is It My Body? Bass Tabs
Its The Little Things Bass Tabs
Generation Landslide Intro Tabs
Muscle Of Love Tabs
No More Mr Nice Guy 3 Tabs
Pain Tabs
Steel That Car Tabs
You Drive Me Nervous Tabs
You Make Me Wanna Tabs
Poison Ukulele


Song lyrics



↑ Back to top | Tablatures and chords are parodies/interpretations of the original songs. You may use it for private study, scholarship, research or language learning purposes only
© 2014 AZChords.com Contact us | Privacy policy | DMCA | Add/correct tabs | Request tabs | Top 50 tabs