» » »

Alice Cooper, Generation Landslide Tabs (ver.1)

Artists:  A B C D E F G H I J K L M N O P Q R S T U V W X Y Z # 

Generation Landslide Tabs (ver.1)

Alice Cooper Tabs
 Rating:
4/5 (4 votes)
Generation Landslide lessons Tabs too difficult? Try these video lessons and learn fast
1
                (Intro)
Generation Landslide (intro) - Alice Cooper

I don’t usually tab song introductions on principle, however this one was a request so 
made a thorough job of it, it does sound peculiar but that’s the way it is.

I have also submitted the chords to the rest of this tab on the site; G F and C major.
If someone asks ill tab the rest of it later on - Just_Chaz

Bass line:
G|----------------------------------------------------|
D|----------------------------------------------------|
A|----------------------------------------------------|
E|-/13-15-13-15-13-15-13-15--12-15-12-15-12-15-12-15--|

G|----------------------------------------------------|
D|----------------------------------------------------|
A|------------------------------10----10----10----10--|
E|--11-15-11-15-11-15-11-15--10----10----10----10-----|

G|----------------------------------------------------------|
D|----------------------------------------------------------|
A|----------------------------------------------------------|
E|--10-12-13-15-13-15-13-15-13-15--12-15-12-15-12-15-12-15--|

G|------------------------------|
D|------------------------------|
A|----10---10---10---10---------|
E|--8----8----8----8-----3--1~--|


Guitar Line:
e|--7---7------5---5------3---3------7---8-8-7--|
B|----6---6------6---6------3---3------8--------|
G|----------7----------5----------0-------------|
D|----------------------------------------------|
A|----------------------------------------------|
E|----------------------------------------------|

e|--7---7------5---5------0---0-------------|
B|----6---6------6---6------1---1-----------|
G|----------7----------5----------0---------|
D|-----------------------------------5--3~--|
A|-----------------------------------5--3~--|
E|-----------------------------------3--1~--|

| /  slide up
| \  slide down
| h  hammer-on
| p  pull-off
| ~  vibrato
| +  harmonic
| x  Mute note
| TP Trem pick
| b  Bend note
| r  Release note
| Wh Whammy bar
            
Submit corrections

comments powered by Disqus
↑ Back to top | Alice Cooper Tabs for Generation Landslide. Lyrics for acoustic guitar and electric guitar. 1 Tablatures and chords are parodies/interpretations of the original songs. You may use it for private study, scholarship, research or language learning purposes only