» » »

Alice Cooper, Feed My Frankenstein Tabs (ver.4)

Artists:  A B C D E F G H I J K L M N O P Q R S T U V W X Y Z # 

Feed My Frankenstein Tabs (ver.4)

Alice Cooper Tabs
 Rating:
4/5 (4 votes)
Feed My Frankenstein lessons Tabs too difficult? Try these video lessons and learn fast
1
                -------------------------------------------------------------------------------
-------------------------------------------------------------------------------

Tuning: Drop D (the studio version is actually in standard Drop D)

intro:
e|------|
B|------|
G|-7777-|
D|-7777-|
A|-5555-|
D|------|

main riff x2:
e|-------------------------------------------------|
B|---------------------------------------6-6-6-8-6-|
G|---------------------------------------5-5-5-7-5-|
D|-----------------------------------0000-0-0-0----|
A|-------------------------------------------------|
D|-------------------------------------------------|
 |
e|-------------------------------------------------|
B|-------------------------------------------------|
G|-------------------------------------------------|
D|-------------------------------------------------|
A|-------------------------------------------------|
D|-0-3-5-3-0--0-0-3-7-5-7--0-3-5-3-0---------------|

pre-verse:
e|-----------------------------------|
B|-----------------------------------|
G|-----------------------------------|
D|-0~~~------------------------------|
A|-0~~~------------------------------|
D|-0~~~--------------p0~~~-----------|
 |
e|-----------------------------------|
B|-----------------------------------|
G|-----------------------------------|
D|-----------------------------------|
A|-----------------------------------|
D|-0-0-0-00-0000000-0-0-0-00-0000000-|
   x x x xx xxxxxxx x-x-x-xx-xxxxxxx-|

verse x8
e|------------------|
B|------------------|
G|------------------|
D|------------------|
A|------------------|
D|------------------|
 |
e|------------------|
B|------------------|
G|------------------|
D|------------------|
A|------------------|
D|-0-0-0-00-0000000-|
   x x x xx xxxxxxx

pre-chorus
e|-----------------------------------------------------------------------|
B|-----------------------------------------------------------------------|
G|-----5+------5--5+------5+-----5-------------5+------5--5+-2-3-4-5-6-7-|
D|-7-7----7--7--------7-7----7-7---7-5-5-6-7-7----7--7-------------------|
A|-----------------------------------------------------------------------|
D|-----------------------------------------------------------------------|
 |
e|-----------------------------------------------------------------------|
B|-----------------------------------------------------------------------|
G|-----------------------------------------------------------2-3-4-5-6-7-|
D|-----------------------------------------------------------2-3-4-5-6-7-|
A|-0-0-3--0-0-3-0-3---0-0-3--0-0-3-0-------0-0-3--0-0-3-0-3--0-1-2-3-4-5-|
D|-----------------------------------5-5-6-------------------------------|

main riff x2
pre-verse x1
verse x8
pre-chorus
main riff x4
verse x8 (keyboard fill/solo)

guitar solo
e|-------------------------------------------------------13^--13-11----------|
B|-----------------------------------14^14^14^14^14^--xx-----------13-11-15--|
G|-12-12-10-12-12-12-12-12-10-1212-12-----------------xx---------------------|
D|---------------------------------------------------------------------------|
A|---------------------------------------------------------------------------|
D|---------------------------------------------------------------------------|
 |
e|--------------------------------------------------------------------------|
B|--------------------------------------------------------------------------|
G|--------------------------------------------------------------------------|
D|--------------------------------------------------------------------------|
A|-0-0-3--0-0-3-0-3---0-0-3--0-0-3-0-------0-0-3--0-0-3-0-3--0-1-2-3-4-5----|
D|--------------------------------------------------------------------------|

e|------------------------------------------/11-11-11--------------8-8-8----|
B|-11^--13-11----------13^11----------------/11-11-11-13-11--------8-8-8----|
G|-10^-------12p10p8--------1210----------------------------12-12--------8~-|
D|------------------10----------xx8-----------------------------------------|
A|-----------------------------------888888---------------------------------|
D|---------------------------------8----------------------------------------|
 |
e|--------------------------------------------------------------------------|
B|--------------------------------------------------------------------------|
G|--------------------------------------------------------------------------|
D|--------------------------------------------------------------------------|
A|--------------------------------------------------------------------------|
D|-0-3-5-3-0--0-0-3-7-5-7--0-3-5-3-0------0-3-5-3-0--0-0-3-7-5-7--0-3-5-3-0-|

e|--------------------------------------------|
B|--------------------------------------------|
G|--------------------------------------------|
D|--------------------------------------------|
A|--------------------------------------------|
D|-0~-(hold and gradually release whammy bar)-|

main riff x8 and keep going for fade out

Sorry, I don't know the outro solo.  But otherwise that's the song.


| /  slide up
| \  slide down
| h  hammer-on
| p  pull-off
| ~  vibrato
| +  harmonic
| x  Mute note
===============================================================================
            
Submit corrections

comments powered by Disqus
↑ Back to top | Alice Cooper Tabs for Feed My Frankenstein. Lyrics for acoustic guitar and electric guitar. 1 Tablatures and chords are parodies/interpretations of the original songs. You may use it for private study, scholarship, research or language learning purposes only