» » »

Every Woman Has A Name Tabs (ver.1)

Artists:  A B C D E F G H I J K L M N O P Q R S T U V W X Y Z # 

Every Woman Has A Name Tabs (ver.1)

Alice Cooper
Rating:
0/5 (0 votes)

Hard to play? Try these video lessons and learn fast.
                
Tuning:CGCFAD

Intro/verse
D|---------0----------------0----------------2p0-----------------------------|
A|-------3---3------------3---3------------3-----3--------------3------2-3---|
F|-----2-------2--------2-------2--------0---------0----------0--------------|
C|---0-----------0----0-----------0----0--------------------0--------2-------|
G|------------------4----------------2-----------------------------0---------|
C|-0---------------------------------------------------4-5-------------------|

Pre-chorus
D|---------------------------------------------------------------------------|
A|-3---3---3---3--3--2---3---------------------------------------------------|
F|-4---0---4---0--4--2---0---------------------------------------------------| 
C|-4---0---4---0--4--2---0---------------------------------------------------|
G|-2-------2------2--0-------------------------------------------------------|
C|-----5-------5---------5---------------------------------------------------|

Listen to song for the strumming pattern.

Chorus
D|-2--------------2--------------2-------------------------------------------|
A|-3--3--3--3--2--3--3--3--3--2--3--3--3--3----------------------------------|
F|-2--0--4--0--2--2--0--4--0--2--2--0--4--0----------------------------------|
C|-0--0--4--0--2--0--0--4--0--2--0--0--4--0----------------------------------|
G|-0-----2-----0--0-----2-----0--0-----2-------------------------------------|
C|----5-----5--------5-----5--------5-----5----------------------------------|

End on
D|-2-------------------------------------------------------------------------|
A|-3-------------------------------------------------------------------------|
F|-2-------------------------------------------------------------------------|
C|-0-------------------------------------------------------------------------|
G|-0-------------------------------------------------------------------------|
C|---------------------------------------------------------------------------|

I missed a couple of lead riffs, but other than that it's pretty accurate. Good Luck!


| /  slide up
| \  slide down
| h  hammer-on
| p  pull-off
| ~  vibrato
| +  harmonic
| x  Mute note
            
Hard to play? Try these video lessons and learn fast. | Correct




comments powered by Disqus
↑ Back to top | Tablatures and chords are parodies/interpretations of the original songs. You may use it for private study, scholarship, research or language learning purposes only