» » »

Alice Cooper, Earwigs To Eternity Tabs (ver.1)

Artists:  A B C D E F G H I J K L M N O P Q R S T U V W X Y Z # 

Earwigs To Eternity Tabs (ver.1)

Alice Cooper Tabs
Rating:
5/5 (1 vote)
Earwigs To Eternity lessons Tabs too difficult? Try these video lessons and learn fast
                
Keys
h = hammer-on
p = pull-off

"Oh, four years long
And oh, what a song to hear, my dear
Four long years
Now we start to hear a whisper”

  E   F   C   D   A   E   F   C   D   A
E-0---1---0---2-------0---1---0---2-------|
B-0---1---1---3---2---0---1---1---3---2---|
G-1---2---0---2---2---1---2---0---2---2---|
D-2---3---2---0---2---2---3---2---0---2---| 
A-2---3---3-----------2---3---3-----------|
E-0---1---------------0---1---------------|

“All of the time we have
All of the time we had you”
E-10-9-8---------------------------|
B--------10-9-8--------------------|
G----------------9-8-7----7--------|
D----------------------10---10--7--|
A----------------------------------|
E----------------------------------|

  Am
E-0-------|
B-1-------|
G-2-------|
D-2-------|
A-0-------|
E---------|

“All of the time we have
All of the time we have”
E-10-9-8----------------------------|
B--------10--9-8--------------------|
G-----------------9-8-7----7--------|
D-----------------------10---10-----|
A-----------------------------------|
E-----------------------------------|

“We are throwing all of our hands so high
You out there
[two voices at the same time]
Singing (playing) ditties (lovely) beautiful song (what a little song)
for you to be aware”
  E   F   C   D   A   E   F   C   D   A
E-0---1---0---2-------0---1---0---2-------|
B-0---1---1---3---2---0---1---1---3---2---|
G-1---2---0---2---2---1---2---0---2---2---|
D-2---3---2---0---2---2---3---2---0---2---| 
A-2---3---3-----------2---3---3-----------|
E-0---1---------------0---1---------------|

“Oh what a time we have
All of the time we have you”
E-10-9-8---------------------------|
B--------10-9-8--------------------|
G----------------9-8-7----7--------|
D----------------------10---10--7--|
A----------------------------------|
E----------------------------------|

  Am
E-0-------|
B-1-------|
G-2-------|
D-2-------|
A-0-------|
E---------|

“Oh what a time we have
All of the time we have
All of the time we have you”
E-10-9-8------------------------------------9--9--|
B--------10--9-8-----------------------8-10-------|
G-----------------9-8-7----7-----7-8-9------------|
D-----------------------10---10-------------------|
A-------------------------------------------------|
E-------------------------------------------------|

“You're the one you're looking for
Let me in, let me in
Who's there, who's there, who's there”

E-10p9p8--------------------|
B--------10p9p8-------------|
G---------------9p8p7-------|
D---------------------10--7-|
A---------------------------|
E---------------------------|
            

comments powered by Disqus
↑ Back to top | Alice Cooper Tabs for Earwigs To Eternity. Lyrics for acoustic guitar and electric guitar. Tablatures and chords are parodies/interpretations of the original songs. You may use it for private study, scholarship, research or language learning purposes only